PrimaNota.ru - самый крупный в мире бесплатный архив песенных текстов, аккордов, табулатур и нот


Citizen - Cement - таба, бас-таба, видео

Регистрация Запомнить меня
Войти через:  Facebook Google Twitter Vk Yandex Mail.ru

Citizen - Cement - таба, бас-таба, видео

Печатать
Просмотров: 52
----------------------------------------------------------------------------------------------------
                                     Citizen - Cement       
----------------------------------------------------------------------------------------------------

Band: Citizen
Song: Cement
Album: Everybody Is Going To Heaven
Track: 1

Tabbed by: AsILayDying504
Email: mdl4208@aol.com

Tuning: Drop C (CGCFAD)



[0:00 - 0:20]


(No guitar)



[0:20 - 0:40]


D|------------------------------------------------------------------------------|
A|--7-7-7-7-7-7-7-7-7-7-7-7-7-7-7-7-7-7-7-7-7-7-7-7b-7b-7b-7b-7b-7rb-7rb-7rb-7--|
F|------------------------------------------------------------------------------|
C|------------------------------------------------------------------------------|
G|------------------------------------------------------------------------------|
C|------------------------------------------------------------------------------|
      . . . . . . . . . . . . . . . . . . . . . . .


D|------------------------------------------------------------------------------|
A|--7-7-7-7-7-7-7-7-7-7-7-7-7-7-7-7-7-7-7-7-7-7-7-7b-7b-7b-7b-7b-7rb-7rb-7rb-7--|
F|------------------------------------------------------------------------------|
C|------------------------------------------------------------------------------|
G|------------------------------------------------------------------------------|
C|------------------------------------------------------------------------------|
      . . . . . . . . . . . . . . . . . . . . . . .


D|------------------------------------------------------------------------------|
A|--7-7-7-7-7-7-7-7-7-7-7-7-7-7-7-7-7-7-7-7-7-7-7-7b-7b-7b-7b-7b-7rb-7rb-7rb-7--|
F|------------------------------------------------------------------------------|
C|------------------------------------------------------------------------------|
G|------------------------------------------------------------------------------|
C|------------------------------------------------------------------------------|
      . . . . . . . . . . . . . . . . . . . . . . .


D|--------------------------------------------------------|  *Strum while sliding
A|--7-7-7-7-7-7-7-7-7-7-7-7-7-7-7-7-7-7-7-7-7-7-7-7-7///--|   up the entire neck
F|--------------------------------------------------------|   (///)
C|--------------------------------------------------------|
G|--------------------------------------------------------|
C|--------------------------------------------------------|
      . . . . . . . . . . . . . . . . . . . . . . .



[0:40 - 1:00]


D|-------------------------------------------------------------------|
A|-------------------------------------------------------------------|
F|------6-------6-------6-------6------------------------------------|
C|--------6-------6-------6-------6-----7-6-----7-6-----7-6-----7-6--|
G|----7-------7-------7-------7-------7-------7-------7-------7------|
C|--6-------6-------6-------6-------7-------7-------7-------7--------|


D|-------------------------------------------------------------------|
A|-------------------------------------------------------------------|
F|------6-------6-------6-------6------------------------------------|
C|--------6-------6-------6-------6-----7-6-----7-6-----7-6-----7-6--|
G|----7-------7-------7-------7-------7-------7-------7-------7------|
C|--6-------6-------6-------6-------7-------7-------7-------7--------|



[1:00 - 1:27]


D|-------------------------------------------------------------------|
A|-------------------------------------------------------------------|
F|--------------------------------------6---5---5-------6---5---5----|
C|--4-4-4-4-4-4-4-4-4-4-4-4-4-4-4-4---4-------4---4---4-------4---4--|
G|--4-4-4-4-4-4-4-4-4-4-4-4-4-4-4-4-5-----5---------5-----5----------|
C|--4-4-4-4-4-4-4-4-4-4-4-4-4-4-4-4----------------------------------|


D|-------------------------------------------------------------------|
A|-------------------------------------------------------------------|
F|--------------------------------------6---5---5-------6---5---5----|
C|--4-4-4-4-4-4-4-4-4-4-4-4-4-4-4-4---4-------4---4---4-------4---4--|
G|--4-4-4-4-4-4-4-4-4-4-4-4-4-4-4-4-5-----5---------5-----5----------|
C|--4-4-4-4-4-4-4-4-4-4-4-4-4-4-4-4----------------------------------|


D|----------------------------------|
A|----------------------------------|
F|----------------------------------|
C|-2-2-2-2-2-2-2-2-2-2-2-2-2-4-6-7--|
G|-2-2-2-2-2-2-2-2-2-2-2-2-2-4-6-7--|
C|-2-2-2-2-2-2-2-2-2-2-2-2-2-4-6-7--|



[1:27 - 1:47]


GUITAR 1

D|------------------------------------|
A|------------------------------------|
F|--------2---------------------------|  x4
C|----4-------3---2-------------------|
G|--------------------0--0---0---0----|
C|--4---4---4---4---4-10---9---7---7--|



GUITAR 2

D|------------------------------------------------------------------------------|
A|--7-7-7-7-7-7-7-7-7-7-7-7-7-7-7-7-7-7-7-7-7-7-7-7b-7b-7b-7b-7b-7rb-7rb-7rb-7--|
F|------------------------------------------------------------------------------|
C|------------------------------------------------------------------------------|
G|------------------------------------------------------------------------------|
c|------------------------------------------------------------------------------|
 |    . . . . . . . . . . . . . . . . . . . . . . .
 |
D|------------------------------------------------------------------------------|
A|--7-7-7-7-7-7-7-7-7-7-7-7-7-7-7-7-7-7-7-7-7-7-7-7b-7b-7b-7b-7b-7rb-7rb-7rb-7--|
F|------------------------------------------------------------------------------|
C|------------------------------------------------------------------------------|
G|------------------------------------------------------------------------------|
C|------------------------------------------------------------------------------|
 |    . . . . . . . . . . . . . . . . . . . . . . .
 |
D|------------------------------------------------------------------------------|
A|--7-7-7-7-7-7-7-7-7-7-7-7-7-7-7-7-7-7-7-7-7-7-7-7b-7b-7b-7b-7b-7rb-7rb-7rb-7--|
F|------------------------------------------------------------------------------|
C|------------------------------------------------------------------------------|
G|------------------------------------------------------------------------------|
C|------------------------------------------------------------------------------|
 |    . . . . . . . . . . . . . . . . . . . . . . .
 |
D|--------------------------------------------------------|  *Strum while sliding
A|--7-7-7-7-7-7-7-7-7-7-7-7-7-7-7-7-7-7-7-7-7-7-7-7-7///--|   up the entire neck
F|--------------------------------------------------------|   (///)
C|--------------------------------------------------------|
G|--------------------------------------------------------|
C|--------------------------------------------------------|
      . . . . . . . . . . . . . . . . . . . . . . .



[1:47 - 2:07]


GUITAR 1

D|-------------------------------------------------------------------|
A|-------------------------------------------------------------------|
F|--2-2-2-2-2-2-2-2-2-2-2-2-2-2-2-2-2-2-2-2-2-2-2-2-2-2-2-2-2-2-2-2--|
C|--4-4-4-4-4-4-4-4-4-4-4-4-4-4-4-4-4-4-4-4-4-4-4-4-4-4-4-4-4-4-4-4--|
G|-------------------------------------------------------------------|
C|-------------------------------------------------------------------|
 |  . . . . . . . . . . . . . . . . . . . . . . . . . . . . . . . .
 |
D|-------------------------------------------------------------------|
A|-------------------------------------------------------------------|
F|--2-2-2-2-2-2-2-2-2-2-2-2-2-2-2-2-2-2-2-2-2-2-2-2-2-5-5-5-5-4-4-4--|
C|--4-4-4-4-4-4-4-4-4-4-4-4-4-4-4-4-4-4-4-4-4-4-4-4-4-5-5-5-5-4-4-4--|
G|----------------------------------------------------3-3-3-3-2-2-2--|
C|-------------------------------------------------------------------|
    . . . . . . . . . . . . . . . . . . . . . . . . .



GUITAR 2

D|------------------------------------------------------------------------------|
A|--7-7-7-7-7-7-7-7-7-7-7-7-7-7-7-7-7-7-7-7-7-7-7-7b-7b-7b-7b-7b-7rb-7rb-7rb-7--|
F|------------------------------------------------------------------------------|
C|------------------------------------------------------------------------------|
G|------------------------------------------------------------------------------|
c|------------------------------------------------------------------------------|
 |    . . . . . . . . . . . . . . . . . . . . . . .
 |
D|------------------------------------------------------------------------------|
A|--7-7-7-7-7-7-7-7-7-7-7-7-7-7-7-7-7-7-7-7-7-7-7-7b-7b-7b-7b-7b-7rb-7rb-7rb-7--|
F|------------------------------------------------------------------------------|
C|------------------------------------------------------------------------------|
G|------------------------------------------------------------------------------|
C|------------------------------------------------------------------------------|
 |    . . . . . . . . . . . . . . . . . . . . . . .
 |
D|------------------------------------------------------------------------------|
A|--7-7-7-7-7-7-7-7-7-7-7-7-7-7-7-7-7-7-7-7-7-7-7-7b-7b-7b-7b-7b-7rb-7rb-7rb-7--|
F|------------------------------------------------------------------------------|
C|------------------------------------------------------------------------------|
G|------------------------------------------------------------------------------|
C|------------------------------------------------------------------------------|
 |    . . . . . . . . . . . . . . . . . . . . . . .
 |
D|--------------------------------------------------------|  *Strum while sliding
A|--7-7-7-7-7-7-7-7-7-7-7-7-7-7-7-7-7-7-7-7-7-7-7-7-7///--|   up the entire neck
F|--------------------------------------------------------|   (///)
C|--------------------------------------------------------|
G|--------------------------------------------------------|
C|--------------------------------------------------------|
      . . . . . . . . . . . . . . . . . . . . . . .



[2:07 - 2:33]


D|-------------------------------------------------------------------|
A|-------------------------------------------------------------------|
F|--------------------------------------6---5---5-------6---5---5----|
C|--4-4-4-4-4-4-4-4-4-4-4-4-4-4-4-4---4-------4---4---4-------4---4--|
G|--4-4-4-4-4-4-4-4-4-4-4-4-4-4-4-4-5-----5---------5-----5----------|
C|--4-4-4-4-4-4-4-4-4-4-4-4-4-4-4-4----------------------------------|


D|-------------------------------------------------------------------|
A|-------------------------------------------------------------------|
F|--------------------------------------6---5---5-------6---5---5----|
C|--4-4-4-4-4-4-4-4-4-4-4-4-4-4-4-4---4-------4---4---4-------4---4--|
G|--4-4-4-4-4-4-4-4-4-4-4-4-4-4-4-4-5-----5---------5-----5----------|
C|--4-4-4-4-4-4-4-4-4-4-4-4-4-4-4-4----------------------------------|


D|----------------------------------|
A|----------------------------------|
F|----------------------------------|
C|-2-2-2-2-2-2-2-2-2-2-2-2-2-2-2-2--|
G|-2-2-2-2-2-2-2-2-2-2-2-2-2-2-2-2--|
C|-2-2-2-2-2-2-2-2-2-2-2-2-2-2-2-2--|



[2:33 - 2:53]


D|-------------------------------------------------------------------|
A|-------------------------------------------------------------------|
F|--------------------------------------6-------6-------6-------6----|
C|--4-4-4-4-4-4-4-4-4-4-4-4-4-4-4-4-4-4-4-4-4-4-4-4-4-4-4-4-4-4-4-4--|
G|--4-4-4-4-4-4-4-4-4-4-4-4-4-4-4-4-5-5-5-5-5-5-5-5-5-5-5-5-5-5-5-5--|
C|--4-4-4-4-4-4-4-4-4-4-4-4-4-4-4-4----------------------------------|


D|-------------------------------------------------------------------|
A|-------------------------------------------------------------------|
F|--------------------------------------6-------6-------6-------6----|
C|--4-4-4-4-4-4-4-4-4-4-4-4-4-4-4-4-4-4-4-4-4-4-4-4-4-4-4-4-4-4-4-4--|
G|--4-4-4-4-4-4-4-4-4-4-4-4-4-4-4-4-5-5-5-5-5-5-5-5-5-5-5-5-5-5-5-5--|
C|--4-4-4-4-4-4-4-4-4-4-4-4-4-4-4-4----------------------------------|



[2:53 - 3:13]


D|-------------------------------------------------------------------|
A|-------------------------------------------------------------------|
F|------6-------6-------6-------6------------------------------------|
C|--------6-------6-------6-------6-----7-6-----7-6-----7-6-----7-6--|
G|----7-------7-------7-------7-------7-------7-------7-------7------|
C|--6-------6-------6-------6-------7-------7-------7-------7--------|


D|-------------------------------------------------------------------|
A|-------------------------------------------------------------------|
F|------6-------6-------6-------6------------------------------------|
C|--------6-------6-------6-------6-----7-6-----7-6-----7-6-----7-6--|
G|----7-------7-------7-------7-------7-------7-------7-------7------|
C|--6-------6-------6-------6-------7-------7-------7-------7--------|



[3:13 - 3:45]


D|-------------------------------------------------------------------|
A|-------------------------------------------------------------------|
F|--------------------------------------6---5---5-------6---5---5----|
C|--4-4-4-4-4-4-4-4-4-4-4-4-4-4-4-4---4-------4---4---4-------4---4--|
G|--4-4-4-4-4-4-4-4-4-4-4-4-4-4-4-4-5-----5---------5-----5----------|
C|--4-4-4-4-4-4-4-4-4-4-4-4-4-4-4-4----------------------------------|


D|-------------------------------------------------------------------|
A|-------------------------------------------------------------------|
F|--------------------------------------6---5---5-------6---5---5----|
C|--4-4-4-4-4-4-4-4-4-4-4-4-4-4-4-4---4-------4---4---4-------4---4--|
G|--4-4-4-4-4-4-4-4-4-4-4-4-4-4-4-4-5-----5---------5-----5----------|
C|--4-4-4-4-4-4-4-4-4-4-4-4-4-4-4-4----------------------------------|


D|----------------------------------|
A|----------------------------------|
F|----------------------------------|
C|-2-2-2-2-2-2-2-2-2-2-2-2-2-4-6-7--|
G|-2-2-2-2-2-2-2-2-2-2-2-2-2-4-6-7--|
C|-2-2-2-2-2-2-2-2-2-2-2-2-2-4-6-7--|



[END]



*****************************************

|  b     bend
|  rb    release bend
|  .     palm mute

*****************************************
Добавлено: 06.11.2015
Другие материалы по этой песне:
  • Аккорды и текст

Страница создана 06.11.2015
http://primanota.ru/citizen/cement-chords.htm
Привет, Гость.
Предлагаем пройти революционный курс по гитаре.
Подарок от PrimaNota.Ru, забирай!