PrimaNota.ru - самый крупный в мире бесплатный архив песенных текстов, аккордов, табулатур и нот


Citizen - Dive Into My Sun - таба, видео

Регистрация Запомнить меня
Войти через:  Facebook Google Twitter Vk Yandex Mail.ru

Citizen - Dive Into My Sun - таба, видео

Печатать
Просмотров: 54
Fairly simple tab for the song, done by ear so might not be 100% accurate. The bass in 
this song is quite high
and could be confused for guitar such as in the chorus so don't say I didn't include it 
as this isn't a bass tab
Anyway hope this helped anyone.

NOTE THAT I AM UNSURE OF THE CHORUS TAB AND AM ACCEPTING SUGGESTIONS


INTRO/VERSE RIFF:

Guitar 1 (palm muted)
E|-------------------------------|
B|-------------------------------|
G|--2-----8-----9-----8-----9----|
D|--2---- 8-----9-----8-----9----|
A|--0-x16-6-x3--7-x5--6-x3--7-x5-|
E|-------------------------------|

Guitar 2:
E|-------0-------------------0-----------------0--------0-----0-----0--------0-----0--|
B|--0h1-----1--1--1--1--0h1-----1--1--1--1--4-----4--5-----5-----4-----4--5-----5-----|
G|------------------------------------------------------------------------------------|
D|------------------------------------------------------------------------------------|
A|------------------------------------------------------------------------------------|
E|------------------------------------------------------------------------------------|

PRE-CHORUS:

Guitar 1 (palm muted)
E|--------|
B|--------|
G|--------|
D|--3-----|
A|--3-----|
E|--1-x13-|

CHORUS:

Guitar 1:
E|-------------------------------------|
B|-------------------------------------|
G|--------------------7-----5----------|
D|--7-----2-----3-----7-----5-----6----|
A|--7-----2-----3-----5-x8--3-x8--6----|
E|--5-x8--0-x8--1-x8--------------4-x8-|

VERSE 2:

Guitar 1 (palm muted)
E|-------------------------------|
B|-------------------------------|
G|--2-----8-----9-----8-----9----|
D|--2---- 8-----9-----8-----9----|
A|--0-x16-6-x3--7-x5--6-x3--7-x5-|
E|-------------------------------|

Guitar 2:
E|-------0-------------------0-----------------0--------0-----0-----0--------0-----0--|
B|--0h1-----1--1--1--1--0h1-----1--1--1--1--4-----4--5-----5-----4-----4--5-----5-----|
G|------------------------------------------------------------------------------------|
D|------------------------------------------------------------------------------------|
A|------------------------------------------------------------------------------------|
E|------------------------------------------------------------------------------------|


PRE CHORUS:

Guitar 1 (palm muted)
E|--------------------------|
B|--------------------------|
G|--------------------------|
D|--3-----2-----3-----2-----|
A|--3-----2-----3-----2-----|
E|--1-x16-0-x16-1-x16-0-x13-|


SOLO:

Guitar 1:
E|-------------------------------------|
B|-------------------------------------|
G|--------------------7-----5----------|
D|--7-----2-----3-----7-----5-----6----|
A|--7-----2-----3-----5-x8--3-x8--6----|
E|--5-x8--0-x8--1-x8--------------4-x8-|

Guitar 2:
E|-------------------------------------------------------------------------|
B|-------------------------------------------------------------------------|
G|--2--0-----2--2--2-----------2/5--4--2--0--------------------------------|
D|--------------------0--2-------------------2--0--------------------------|
A|----------------------------------------------------3--5--5--3--5--3-----|
E|-------------------------------------------------------------------------|


CHORUS:

Guitar 1:
E|-------------------------------------|
B|-------------------------------------|
G|--------------------7-----5----------|
D|--7-----2-----3-----7-----5-----6----|
A|--7-----2-----3-----5-x8--3-x8--6----|
E|--5-x8--0-x8--1-x8--------------4-x8-|


OUTRO:

Guitar 1 (palm muted)
E|-------------------------------|
B|-------------------------------|
G|--2-----8-----9-----8-----9----|
D|--2---- 8-----9-----8-----9----|
A|--0-x16-6-x3--7-x5--6-x3--7-x5-|
E|-------------------------------|

Guitar 2:
E|-------0-------------------0-----------------0--------0-----0-----0--------0-----0--|
B|--0h1-----1--1--1--1--0h1-----1--1--1--1--4-----4--5-----5-----4-----4--5-----5-----|
G|------------------------------------------------------------------------------------|
D|------------------------------------------------------------------------------------|
A|------------------------------------------------------------------------------------|
E|------------------------------------------------------------------------------------|
Добавлено: 25.03.2016
Другие материалы по этой песне:
  • Аккорды и текст

Страница создана 25.03.2016
http://primanota.ru/citizen/dive-into-my-sun-chords.htm
Привет, Гость.
Предлагаем пройти революционный курс по гитаре.
Подарок от PrimaNota.Ru, забирай!