PrimaNota.ru - самый крупный в мире бесплатный архив песенных текстов, аккордов, табулатур и нот


Citizen - Yellow Love - таба, видео

Регистрация Запомнить меня
Войти через:  Facebook Google Twitter Vk Yandex Mail.ru

Citizen - Yellow Love - таба, видео

Печатать
Просмотров: 137
Fairly simple tab, done by ear so may not be how it's actually played, I couldn't find a good enough live
recording to base this off of... This works to sing along too though and that's what's important is it not?


VERSE:

  Be mine             shake up my love
e|---------------------------------------------------------------------------|
B|---------------------------------------------------------------------------|
G|---------------------------------------------------------------------------|
D|-0-0-0-0-0-0-0-0-0-0-0-0-0-0-0-0/4-4-4-4-4-4-4-4-5-5-5-4-4-4-4-4-----------|
A|-2-2-2-2-2-2-2-2-2-2-2-2-2-2-2-2/5-5-5-5-5-5-5-5-5-5-5-5-5-5-5-5-----------|
E|---------------------------------------------------------------------------|

  Yellow          night has had enough
e|---------------------------------------------------------------------------|
B|---------------------------------------------------------------------------|
G|---------------------------------------------------------------------------|
D|-0-0-0-0-0-0-0-0-0-0-0-0-0-0-0-0/4-4-4-4-4-4-4-4-5-5-5-4-4-4-4-4-----------|
A|-2-2-2-2-2-2-2-2-2-2-2-2-2-2-2-2/5-5-5-5-5-5-5-5-5-5-5-5-5-5-5-5-----------|
E|---------------------------------------------------------------------------|

  It's been       out way             too long
e|---------------------------------------------------------------------------|
B|---------------------------------------------------------------------------|
G|---------------------------------------------------------------------------|
D|-5-5-5-5-5-5-5-5/-9--9--9--9--9--9--9--9\0-0-0-0-0-0-0-0-0-0-0-0-0-0-0-0---|
A|-7-7-7-7-7-7-7-7/10-10-10-10-10-10-10-10\2-2-2-2-2-2-2-2-2-2-2-2-2-2-2-2---|
E|---------------------------------------------------------------------------|

  I see            nothing but     yellow love
e|---------------------------------------------------------------------------|
B|---------------------------------------------------------------------------|
G|---------------------------------------------------------------------------|
D|-5-5-5-5-5-5-5-5/-9--9--9--9--9--9--9--9\0-0-0-0-0-0-0-0-----0-----0-------|
A|-7-7-7-7-7-7-7-7/10-10-10-10-10-10-10-10\2-2-2-2-2-2-2-2---0-----2---2-----|
E|---------------------------------------------------------2-----3-------3---|

CHORUS:

  Love,         my love,            love          my love
e|---------------------------------------------------------------------------|
B|---------------------------------------------------------------------------|
G|---------------------------------------------------------------------------|
D|-0-0-0-0-0-0-0-0------------------0-0-0-0-0-0-0-0--------------------------|
A|-2-2-2-2-2-2-2-2-0-0-0-2-2-2-2-2--2-2-2-2-2-2-2-2-0-0-0-2-2-2-2-2----------|
E|-----------------2-2-2-3-3-3-3-3------------------2-2-2-3-3-3-3-3----------|

  Love,         my love,            love          my love
e|---------------------------------------------------------------------------|
B|---------------------------------------------------------------------------|
G|---------------------------------------------------------------------------|
D|-0-0-0-0-0-0-0-0------------------0-0-0-0-0-0-0-0-----0-----0--------------|
A|-2-2-2-2-2-2-2-2-0-0-0-2-2-2-2-2--2-2-2-2-2-2-2-2---0-----2---2------------|
E|-----------------2-2-2-3-3-3-3-3------------------2-----3-------3----------|

VERSE:

  Be mine               pull me in two
e|---------------------------------------------------------------------------|
B|---------------------------------------------------------------------------|
G|---------------------------------------------------------------------------|
D|-0-0-0-0-0-0-0-0-0-0-0-0-0-0-0-0/4-4-4-4-4-4-4-4-5-5-5-4-4-4-4-4-----------|
A|-2-2-2-2-2-2-2-2-2-2-2-2-2-2-2-2/5-5-5-5-5-5-5-5-5-5-5-5-5-5-5-5-----------|
E|---------------------------------------------------------------------------|

  I will    mould myself just for you
e|---------------------------------------------------------------------------|
B|---------------------------------------------------------------------------|
G|---------------------------------------------------------------------------|
D|-0-0-0-0-0-0-0-0-0-0-0-0-0-0-0-0/4-4-4-4-4-4-4-4-5-5-5-4-4-4-4-4-----------|
A|-2-2-2-2-2-2-2-2-2-2-2-2-2-2-2-2/5-5-5-5-5-5-5-5-5-5-5-5-5-5-5-5-----------|
E|---------------------------------------------------------------------------|

  The night is     vivid               for once
e|---------------------------------------------------------------------------|
B|---------------------------------------------------------------------------|
G|---------------------------------------------------------------------------|
D|-5-5-5-5-5-5-5-5/-9--9--9--9--9--9--9--9\0-0-0-0-0-0-0-0-0-0-0-0-0-0-0-0---|
A|-7-7-7-7-7-7-7-7/10-10-10-10-10-10-10-10\2-2-2-2-2-2-2-2-2-2-2-2-2-2-2-2---|
E|---------------------------------------------------------------------------|

 Still I see       nothing but     yellow love
e|---------------------------------------------------------------------------|
B|---------------------------------------------------------------------------|
G|---------------------------------------------------------------------------|
D|-5-5-5-5-5-5-5-5/-9--9--9--9--9--9--9--9\0-0-0-0-0-0-0-0-----0-----0-------|
A|-7-7-7-7-7-7-7-7/10-10-10-10-10-10-10-10\2-2-2-2-2-2-2-2---0-----2---2-----|
E|---------------------------------------------------------2-----3-------3---|

CHORUS:

  Love,         my love,            love          my love
e|---------------------------------------------------------------------------|
B|---------------------------------------------------------------------------|
G|---------------------------------------------------------------------------|
D|-0-0-0-0-0-0-0-0------------------0-0-0-0-0-0-0-0--------------------------|
A|-2-2-2-2-2-2-2-2-0-0-0-2-2-2-2-2--2-2-2-2-2-2-2-2-0-0-0-2-2-2-2-2----------|
E|-----------------2-2-2-3-3-3-3-3------------------2-2-2-3-3-3-3-3----------|

  Love,         my love,            love          my love
e|---------------------------------------------------------------------------|
B|---------------------------------------------------------------------------|
G|---------------------------------------------------------------------------|
D|-0-0-0-0-0-0-0-0------------------0-0-0-0-0-0-0-0-----0-----0--------------|
A|-2-2-2-2-2-2-2-2-0-0-0-2-2-2-2-2--2-2-2-2-2-2-2-2---0-----2---2------------|
E|-----------------2-2-2-3-3-3-3-3------------------2-----3-------3----------|

OUT:

  All I see,      celestial desire  a distant joy   dancing all around me
e|---------------------------------------------------------------------------|
B|---------------------------------------------------------------------------|
G|---------------------------------------------------------------------------|
D|-0-0-0-0-0-0-0-0------------------0-0-0-0-0-0-0-0--------------------------|
A|-2-2-2-2-2-2-2-2-0-0-0-2-2-2-2-2--2-2-2-2-2-2-2-2-0-0-0-2-2-2-2-2----------|
E|-----------------2-2-2-3-3-3-3-3------------------2-2-2-3-3-3-3-3----------|

  All I see,      yellow in...      how beautifully the colour worked itself in...
e|---------------------------------------------------------------------------|
B|---------------------------------------------------------------------------|
G|---------------------------------------------------------------------------|
D|-0-0-0-0-0-0-0-0------------------0-0-0-0-0-0-0-0-----0-----0--------------|
A|-2-2-2-2-2-2-2-2-0-0-0-2-2-2-2-2--2-2-2-2-2-2-2-2---0-----2---2------------|
E|-----------------2-2-2-3-3-3-3-3------------------2-----3-------3----------|

Добавлено: 25.03.2016
Другие материалы по этой песне:
  • Аккорды и текст

Страница создана 25.03.2016
http://primanota.ru/citizen/yellow-love-chords.htm
Привет, Гость.
Предлагаем пройти революционный курс по гитаре.
Подарок от PrimaNota.Ru, забирай!