PrimaNota.ru - самый крупный в мире бесплатный архив песенных текстов, аккордов, табулатур и нот


Cinderella - Somebody Save Me - текст песни, таба, бас-таба, видео

Регистрация Запомнить меня
Войти через:  Facebook Google Twitter Vk Yandex Mail.ru

Cinderella - Somebody Save Me - текст песни, таба, бас-таба, видео

Печатать
Просмотров: 546
Уроки эстрадного вокала в Санкт-Петербурге
Авторы музыки: Tom Keifer
Авторы текста: Tom Keifer
First guitar:
e|-------------------------------------------------------------|
B|-------------------------------------------------------------|
G|----2-----2-----2------5-----5-----5------7-----7-----7------|
D|----2-----2-----2------3-----3-----3------5-----5-----5------|
A|------0-0---0-0---0------0-0---0-0---0------0-0---0-0---0----|
E|-------------------------------------------------------------|
PM      . .   . .   .      . .   . .   .      . .   . .   .


e|------------------------------------|
B|------------------------------------|
G|------------------------------------|
D|------------------------------------|
A|----3--2--0--5--3--2---------3--2---|
E|------------------------------------|



e|-------------------------------------------------------------|
B|-------------------------------------------------------------|
G|----2-----2-----2------5-----5-----5------7-----7-----7------|
D|----2-----2-----2------3-----3-----3------5-----5-----5------|
A|------0-0---0-0---0------0-0---0-0---0------0-0---0-0---0----|
E|-------------------------------------------------------------|
PM      . .   . .   .      . .   . .   .      . .   . .   .

Second guitar(let ring):
e|----------|
B|----------|
G|----2-----|
D|----2-----|
A|----0-----|
E|----------|


Both guitars:
e|------------------------------------|
B|------------------------------------|
G|------------------------------------|
D|------------------------------------|
A|----3--2--0--5--3--2---------3--2---|
E|------------------------------------|



Second guitar:
e|--------------------------------------------|
B|----4b(5)---6--5------9--7------11---9~~----|
G|--------------------------------------------|
D|--------------------------------------------|
A|--------------------------------------------|
E|--------------------------------------------|


e|--------------------------------------------|
B|----4b(5)---6--5------9--7------2--4~~------|
G|--------------------------------------------|
D|--------------------------------------------|
A|--------------------------------------------|
E|--------------------------------------------|


VERSE x4
Both guitars:
e|-------------------------------------------------------------|
B|-------------------------------------------------------------|
G|----2-----2-----2------5-----5-----5------7-----7-----7------|
D|----2-----2-----2------3-----3-----3------5-----5-----5------|
A|------0-0---0-0---0------0-0---0-0---0------0-0---0-0---0----|
E|-------------------------------------------------------------|
PM      . .   . .   .      . .   . .   .      . .   . .   .

e|------------------------------------|
B|------------------------------------|
G|------------------------------------|
D|------------------------------------|
A|----3--2--0--5--3--2---------3--2---|
E|------------------------------------|



BRIDGE
e|-----------------------------------------|
B|----3------------------------------------|
G|----2-----2-----5-----5-----5--------7---|
D|----0-----2-----3-----3-----3--------5---|
A|----------0-------0-0---0-0---0----------|
E|-----------------------------------------|
PM                  . .   . .   .



CHORUS x2
e|-------------------------------------------------------------|
B|-------------------------------------------------------------|
G|----2-----2-----2------5-----5-----5------7-----7-----7------|
D|----2-----2-----2------3-----3-----3------5-----5-----5------|
A|------0-0---0-0---0------0-0---0-0---0------0-0---0-0---0----|
E|-------------------------------------------------------------|
PM      . .   . .   .      . .   . .   .      . .   . .   .

e|------------------------------------|
B|------------------------------------|
G|------------------------------------|
D|------------------------------------|
A|----3--2--0--5--3--2---------3--2---|
E|------------------------------------|


VERSE

BRIDGE

CHORUS


SOLO
Rythm Guitar:x4
e|---------------------------------------------------|
B|------10----8-----10-------------------------------|
G|------9-----7-----9-------7--7---------------------|
D|------7-----5-----7-------7--7----7-7-7-7-7-7------|
A|--------------------------5--5----5-5-5-5-5-5------|
E|---------------------------------------------------|
PM                                  . . . . . .           




e|-------------------------------------------------------------|
B|-------------------------------------------------------------|
G|----2-----2-----2------5-----5-----5------7-----7-----7------|
D|----2-----2-----2------3-----3-----3------5-----5-----5------|
A|------0-0---0-0---0------0-0---0-0---0------0-0---0-0---0----|
E|-------------------------------------------------------------|
PM      . .   . .   .      . .   . .   .      . .   . .   .

e|------------------------------------|
B|------------------------------------|
G|------------------------------------|
D|------------------------------------|
A|----3--2--0--5--3--2---------3--2---|
E|------------------------------------|


CHORUS


ENDING

Second guitar:
e|--------------------------------------------|
B|----4b(5)---6--5------9--7------11---9~~----|
G|--------------------------------------------|
D|--------------------------------------------|
A|--------------------------------------------|
E|--------------------------------------------|


e|--------------------------------------------|
B|----4b(5)---6--5------9--7------2--4~~------|
G|--------------------------------------------|
D|--------------------------------------------|
A|--------------------------------------------|
E|--------------------------------------------|

Both guitars:
e|------------------------------------|
B|------------------------------------|
G|------------------------------------|
D|------------------------------------|
A|----3--2--0--5--3--2---------3--2---|
E|------------------------------------|


e|------------------|
B|------------------|
G|----2-----2-----2-|
D|----2-----2-----2-|
A|------0-0---0-0---|
E|------------------|
PM      . .   . .   



Добавлено: 26.07.2012
Другие материалы по этой песне:

Страница создана 27.02.2012
http://primanota.ru/cinderella/somebody-save-me-chords.htm
Привет, Гость.
Предлагаем пройти революционный курс по гитаре.
Подарок от PrimaNota.Ru, забирай!