PrimaNota.ru - самый крупный в мире бесплатный архив песенных текстов, аккордов, табулатур и нот


Cinderella - Winds Of Change - аккорды и текст, таба, видео

Регистрация Запомнить меня
Войти через:  Facebook Google Twitter Vk Yandex Mail.ru

Cinderella - Winds Of Change - аккорды и текст, таба, видео

Печатать
Просмотров: 192
Winds Of Change
Cinderella
		   "Winds of Change" by Cinderella
=46rom Heartbreak Station CD
Transcribed by Cory Root
=0D
Guess ya can never have enough rock ballads called Winds of Change.
'tis a purty little tune, & one of the first songs I ever figgered out
all on my own.  I know, yer supposed to learn "Smoke on the Water" first,=

but I hate classic rock.
=0D
This file was originally posted by JaminBen  see below>.  My verse patter=
n
is the same as his, except I opted for the G base on the C chord, & left =
the
high E string open.
=0D
I didn't know if updates go first or last, so my apologies if I've steppe=
d on
yer feet, Ben.
=0D
H =3D hammer-on
P =3D pull-off
T =3D tie
/ =3D slide up
=0D
1.  Verse.  C this 6 times:
=0D
 G                                     C       F     C
=0D
|--------------------|-------------------|-0---0-|-------------------|
|-----------H-P------T----------H-P------|-3---3-|-----1-----1-------|
|-----0----0-2-0---0-|-0-----0-0-2-0---0-|-0---0-|---0-----0----H--0-|
|---0---0--------0---|-----0---------0---|-2---2-|-3-----2-----0-2---|
|--------------------|-------------------|-3---3-|-------------------|
|-3------------------|---3---------------|-3-3-3-|-------------------|
  =

2.  Chorus.  C this once:  =

=0D
 Eb6 (I think)   G                   Eb6             F       G
=0D
|---------------|-------------------|---------------|---------|
|-----1-3-1-----|----------H-P------|-----1-3-1-----|---------|
|---0-------0---|-----0---0-2-0---0-|---0-------0---|-----0---|
|-1-----------1-|---0---0-------0---|-1-----------1-|---0-----|
|---------------|-------------------|---------------|---------T
|---------------|-3-----------------|---------------|-1-----3-|
=0D
The last measure screwed me up.  It goes back to the main pattern, but
it's off a little, time-wise.  Treat it as 2/4 and it resolves itself
nicely back into the verse pattern.
=0D
3.  C 1 & 2 again
=0D
4.  C this:
=0D
  I'm gonna skip the chords, it's just GCGC etc.
=0D
|---------------0-T-0---0-3-|---------------|-0-----------|
|-0-1-0-1/3-1-0-1-|-1-3-1-0-|-0-1-0-1/3-1-0-|-1-3-1-3-0-1-|
|-0-0-0-2/4-0-0-0-|-0-0-0-0-|-0-0-0-2/4-0-0-|-0-0-0-0-0-1-|
|-0-2-0-3/5-2-0-2-|-2-2-2-0-|-0-2-0-3/5-2-0-|-2-2-2-2-0-1-|
|-----------------|---------|---------------|-------------|
|-----------------|---------|---------------|-------------|
=0D
|-----------------T-------3-|---------------|-------------------|
|-0-1-0-1/3-1-0-1-|-1-3-1-0-|-0-1-0-1/3-1-0-|-----1-----1-------|
|-0-0-0-2/4-0-0-0-|-0-0-0-0-|-0-0-0-2/4-0-0-|---0-----0----H--0-|
|-0-2-0-3/5-2-0-2-|-2-2-2-0-|-0-2-0-3/5-2-0-|-3-----2-----0-2---|
|-----------------|---------|---------------|-------------------|
|-----------------|---------|---------------|-------------------|
=0D
5.  Bridge.  C this twice
=0D
 C                  G                 F                 G
=0D
|---------3-------|---------3-------|---------1-------|------------------=
-|
|-------3---3---3-|-------3---3---3-|-----1-----2---2-|----------H-P-----=
-|
|-----0-------0---|-----0-------0---|---2---2-----3---|-----0---0-2-0---0=
-|
|---0-------------|---0-------------|-3---------------|---0---0-------0--=
-|
|-3---------------|-2---------------|-----------------|------------------=
-|
|-----------------|-----------------|-----------------|-3----------------=
-|
=0D
6.  C 4 & 5 again, and then just keep repeating 4.  He'll start cutting
    it down smaller, finishing the pattern w/ F & C strums.  End on a G
    and resume verse pattern.
=0D
#######################################################################
=0D
=0D
Winds of Change
    by Cinderella
    transcribed by Ben Pratt, =3D
=0D
    Email: jaminben@aol.com
=3D0D
This is Cinderella's last song on the Heartbreak Station CD.
=3D0D
=0D
|-------------------------------------|----------------------------------=
=3D
-|
|-------------------^-----------------|------------------^---------------=
=3D
-|
|----------0-------0--2---0-------0---|--------------0--0--2---0-------0-=
=3D
-|
|------0-------0--------------0-------|----------0-----------------0-----=
=3D
-|
|-------------------------------------|----------------------------------=
=3D
-|
|--3----------------------------------|------3---------------------------=
=3D
-|
=3D0D
=0D

|--3-------------------3-----------|-------------------------------------=
=3D
-|
|--1-------------------1-----------|----------1-----------1--------------=
=3D
-|
|--0-------------------0-----------|------0-----------0---------^-----0--=
=3D
-|
|--2-------------------2-----------|--3-----------2------------0--2------=
=3D
-|
|----------------3-----------------|-------------------------------------=
=3D
-|
|----------------------------------|-------------------------------------=
=3D
-|
=3D0D
=0D

|-------------------------------------|----------------------------------=
=3D
-|
|-------------------^-----------------|------------------^---------------=
=3D
-|
|----------0-------0--2---0-------0---|--------------0--0--2---0-------0-=
=3D
-|
|------0-------0--------------0-------|----------0-----------------0-----=
=3D
-|
|-------------------------------------|----------------------------------=
=3D
-|
|--3----------------------------------|------3---------------------------=
=3D
-|
=3D0D
=0D

|--3-------------------3-----------|-------------------------------------=
=3D
-|
|--1-------------------1-----------|----------1-----------1--------------=
=3D
-|
|--0-------------------0-----------|------0-----------0---------^-----0--=
=3D
-|
|--2-------------------2-----------|--3-----------2------------0--2------=
=3D
-|
|----------------3-----------------|-------------------------------------=
=3D
-|
|----------------------------------|-------------------------------------=
=3D
-|
                                                                      I
=3D0D
=0D
|-------------------------------------|----------------------------------=
=3D
-|
|-------------------^-----------------|------------------^---------------=
=3D
-|
|----------0-------0--2---0-------0---|--------------0--0--2---0-------0-=
=3D
-|
|------0-------0--------------0-------|----------0-----------------0-----=
=3D
-|
|-------------------------------------|----------------------------------=
=3D
-|
|--3----------------------------------|------3---------------------------=
=3D
-|
   look     into     the         mirror,                Can     almost =3D=

=0D
=3D0D
=0D
|--3-------------------3-----------|-------------------------------------=
=3D
-|
|--1-------------------1-----------|----------1-----------1--------------=
=3D
-|
|--0-------------------0-----------|------0-----------0---------^-----0--=
=3D
-|
|--2-------------------2-----------|--3-----------2------------0--2------=
=3D
-|
|----------------3-----------------|-------------------------------------=
=3D
-|
|----------------------------------|-------------------------------------=
=3D
-|
   count    the   years.                                               Th=
=3D
e
=3D0D
=0D
|-------------------------------------|----------------------------------=
=3D
-|
|-------------------^-----------------|------------------^---------------=
=3D
-|
|----------0-------0--2---0-------0---|--------------0--0--2---0-------0-=
=3D
-|
|------0-------0--------------0-------|----------0-----------------0-----=
=3D
-|
|-------------------------------------|----------------------------------=
=3D
-|
|--3----------------------------------|------3---------------------------=
=3D
-|
   memories        are        clearer                   of   all   those
=3D0D
=0D
|--3-------------------3-----------|-------------------------------------=
=3D
-|
|--1-------------------1-----------|----------1-----------1--------------=
=3D
-|
|--0-------------------0-----------|------0-----------0---------^-----0--=
=3D
-|
|--2-------------------2-----------|--3-----------2------------0--2------=
=3D
-|
|----------------3-----------------|-------------------------------------=
=3D
-|
|----------------------------------|-------------------------------------=
=3D
-|
   things        I     fear.                                          I
=3D0D
=0D
|-------------------------------------|----------------------------------=
=3D
-|
|-------------------^-----------------|------------------^---------------=
=3D
-|
|----------0-------0--2---0-------0---|--------------0--0--2---0-------0-=
=3D
-|
|------0-------0--------------0-------|----------0-----------------0-----=
=3D
-|
|-------------------------------------|----------------------------------=
=3D
-|
|--3----------------------------------|------3---------------------------=
=3D
-|
   watch     the     time   pass    slowly,             It comes and goes=
=3D
=0D
=3D0D
=0D
|--3-------------------3-----------|-------------------------------------=
=3D
-|
|--1-------------------1-----------|----------1-----------1--------------=
=3D
-|
|--0-------------------0-----------|------0-----------0---------^-----0--=
=3D
-|
|--2-------------------2-----------|--3-----------2------------0--2------=
=3D
-|
|----------------3-----------------|-------------------------------------=
=3D
-|
|----------------------------------|-------------------------------------=
=3D
-|
   like       the      winds.                                        The =
=3D
=0D
=3D0D
=0D
|-------------------------------------|----------------------------------=
=3D
-|
|-------------------^-----------------|------------------^---------------=
=3D
-|
|----------0-------0--2---0-------0---|--------------0--0--2---0-------0-=
=3D
-|
|------0-------0--------------0-------|----------0-----------------0-----=
=3D
-|
|-------------------------------------|----------------------------------=
=3D
-|
|--3----------------------------------|------3---------------------------=
=3D
-|
  sea   can   touch   the sky   at   night,            Its    got    the =
=3D
=0D
=3D0D
=0D
|--3-------------------3-----------|-------------------------------------=
=3D
-|
|--1-------------------1-----------|----------1-----------1--------------=
=3D
-|
|--0-------------------0-----------|------0-----------0---------^-----0--=
=3D
-|
|--2-------------------2-----------|--3-----------2------------0--2------=
=3D
-|
|----------------3-----------------|-------------------------------------=
=3D
-|
|----------------------------------|-------------------------------------=
=3D
-|
   freedom       I     crave.                                         I'm=
=3D
=0D
=3D0D
=0D
|-------------------------------------|----------------------------------=
=3D
-|
|--------------3----------------------|------------------^---------------=
=3D
-|
|----------0-------------0------------|--------------0--0--2---0-------0-=
=3D
-|
|------0---------------------0--------|----------0-----------------0-----=
=3D
-|
|--------------------------------2----|----------------------------------=
=3D
-|
|--3----------------------------------|------3---------------------------=
=3D
-|
   going   through  changes   in   my   life,                          I'=
=3D
m
=3D0D
=0D
|-------------------------------------|----------------------------------=
=3D
-|
|--------------3----------------------|----------------------------------=
=3D
-|
|----------0-------------0------------|-----------0-----------------0----=
=3D
-|
|------0---------------------0--------|-------0-----------------0--------=
=3D
-|
|--------------------------------2----|----------------------------------=
=3D
-|
|--3----------------------------------|---2-----------3------------------=
=3D
-|
   going   through  changes,     it'll       be         alright.
=3D0D
=0D
|-------------------------------------|----------------------------------=
=3D
-|
|-------------------^-----------------|------------------^---------------=
=3D
-|
|----------0-------0--2---0-------0---|--------------0--0--2---0-------0-=
=3D
-|
|------0-------0--------------0-------|----------0-----------------0-----=
=3D
-|
|-------------------------------------|----------------------------------=
=3D
-|
|--3----------------------------------|------3---------------------------=
=3D
-|
=3D0D
=0D

|--3-------------------3-----------|-------------------------------------=
=3D
-|
|--1-------------------1-----------|----------1-----------1--------------=
=3D
-|
|--0-------------------0-----------|------0-----------0---------^-----0--=
=3D
-|
|--2-------------------2-----------|--3-----------2------------0--2------=
=3D
-|
|----------------3-----------------|-------------------------------------=
=3D
-|
|----------------------------------|-------------------------------------=
=3D
-|
=3D0D
=0D

|-------------------------------------|----------------------------------=
=3D
-|
|-------------------^-----------------|------------------^---------------=
=3D
-|
|----------0-------0--2---0-------0---|--------------0--0--2---0-------0-=
=3D
-|
|------0-------0--------------0-------|----------0-----------------0-----=
=3D
-|
|-------------------------------------|----------------------------------=
=3D
-|
|--3----------------------------------|------3---------------------------=
=3D
-|
=3D0D
=0D

|--3-------------------3-----------|-------------------------------------=
=3D
-|
|--1-------------------1-----------|----------1-----------1--------------=
=3D
-|
|--0-------------------0-----------|------0-----------0---------^-----0--=
=3D
-|
|--2-------------------2-----------|--3-----------2------------0--2------=
=3D
-|
|----------------3-----------------|-------------------------------------=
=3D
-|
|----------------------------------|-------------------------------------=
=3D
-|
=0D
--PART.BOUNDARY.0.21136.mail02.mail.aol.com.818233463--
=0D


--PART.BOUNDARY.0.20848.mail02.mail.aol.com.820523277--     
Добавлено: 22.09.2013
Другие материалы по этой песне:

Страница создана 21.02.2012
http://primanota.ru/cinderella/winds-of-change-chords.htm
Привет, Гость.
Предлагаем пройти революционный курс по гитаре.
Подарок от PrimaNota.Ru, забирай!