PrimaNota.ru - самый крупный в мире бесплатный архив песенных текстов, аккордов, табулатур и нот


Cinderella - Push Push - текст песни, таба, видео

Регистрация Запомнить меня
Войти через:  Facebook Google Twitter Vk Yandex Mail.ru

Cinderella - Push Push - текст песни, таба, видео

Печатать
Просмотров: 292
-------------------------------------------------------------------------------
			        PUSH, PUSH
                         As recorded by Cinderella
		     (From the 1986 Album NIGHT SONGS)
-------------------------------------------------------------------------------

Words and Music by Cinderella
Transcribed by ominousnocturna



This is a typical 80's rock feel and VERY repetative so I didn't bother with the 
timing too much.  Just listen to the song and you'll get the feel.



Tuning: Standard  E A D G B E

 
let ring throughout...

e|------|-----------------------------|--------------------------------------|
B|------|-----------------------------|--------------------------------------|
G|-7----|-2--2------------------------|-2--2---------------------------------|
D|-7----|-2--2--------7---------------|-2--2--------7------------------------|
A|-5----|-0--0--3-2---5---3-2---0-2~--|-0--0--3-2---5---3-2---0-2~-----------|
E|------|-----------3---------3~------|-----------3---------3~---------------|
                                 repeat 2x 



e|-----------------------------|--------------------------------------|
B|-----------------------------|--------------------------------------|
G|-2--2------------------------|-2--2---------------------------------|
D|-2--2--------7---------------|-2--2--------7------------------------|
A|-0--0--3-2---5---3-2---0-2~--|-0--0--3-2---5---3-2---0-2~-----------|
E|-----------3---------3~------|-----------3---------3~---------------|
  I'm gettin' hot...      play 2x



e|---------------------------------------------------------------------------|
B|---------------------------------------------------------------------------|
G|---------------------------------------------------------------------------|
D|-7/9--7/9--------7/9--7/9---------2------5-----7-7-------------------------|
A|-5/7--5/7--------5/7--5/7--5------0------3-----5-5-------------------------|
E|---------------------------3----------------------------3/\----------------|
  I'm gettin' ready...       



e|-----------------------------|--------------------------------------|
B|-----------------------------|--------------------------------------|
G|-2--2------------------------|-2--2---------------------------------|
D|-2--2--------7---------------|-2--2--------7------------------------|
A|-0--0--3-2---5---3-2---0-2~--|-0--0--3-2---5---3-2---0-2~-----------|
E|-----------3---------3~------|-----------3---------3~---------------|
     Push Push            play 2x



e|-----------------------------|--------------------------------------|
B|-----------------------------|--------------------------------------|
G|-2--2------------------------|-2--2---------------------------------|
D|-2--2--------7---------------|-2--2--------7------------------------|
A|-0--0--3-2---5---3-2---0-2~--|-0--0--3-2---5---3-2---0-2~-----------|
E|-----------3---------3~------|-----------3---------3~---------------|
  She's lookin' fine...   play 2x




e|---------------------------------------------------------------------------|
B|---------------------------------------------------------------------------|
G|---------------------------------------------------------------------------|
D|-7/9--7/9--------7/9--7/9---------2------5-----7-7-------------------------|
A|-5/7--5/7--------5/7--5/7--5------0------3-----5-5-------------------------|
E|---------------------------3----------------------------3/\----------------|
  I'm gettin' ready...       




e|-----------------------------|--------------------------------------|
B|-----------------------------|--------------------------------------|
G|-2--2------------------------|-2--2---------------------------------|
D|-2--2--------7---------------|-2--2--------7------------------------|
A|-0--0--3-2---5---3-2---0-2~--|-0--0--3-2---5------------------------|
E|-----------3---------3~------|-----------3--------------------------|
     Push Push            play 2x            let this chord ring out on the 2nd x 




e|---------------------------------------------------------------------------|
B|---------------------------------------------------------------------------|
G|---------------------------------------------------------------------------|
D|---7/9---7/9---7/9---7/9---7/9-----7/9---7/9---7/9---7/9---7/9-------------|
A|---5/7---5/7---5/7---5/7---5/7-----5/7---5/7---5/7---5/7---5/7-------------|
E|-0-----0-----0-----0-----0-----0-0-----0-----0-----0-----0-----0-----------|
   x     x     x     x     x     x x     x     x     x     x     x



e|-----------------------------|--------------------------------------|
B|-----------------------------|--------------------------------------|
G|-2--2------------------------|-2--2---------------------------------|
D|-2--2--------7---------------|-2--2--------7------------------------|
A|-0--0--3-2---5---3-2---0-2~--|-0--0--3-2---5---3-2---0-2~-----------|
E|-----------3---------3~------|-----------3---------3~---------------|
                          play 2x




e|---------------------------------------------------------------------------|
B|---------------------------------------------------------------------------|
G|---------------------------------------------------------------------------|
D|-7/9--7/9--------7/9--7/9---------2------5-----7-7-------------------------|
A|-5/7--5/7--------5/7--5/7--5------0------3-----5-5-------------------------|
E|---------------------------3----------------------------15\----------------|
  I'm gettin' ready...       let ring...                  pick rake/slide  





e|-----------------------------|--------------------------------------|
B|-----------------------------|--------------------------------------|
G|-2--2------------------------|-2--2---------------------------------|
D|-2--2--------7---------------|-2--2--------7------------------------|
A|-0--0--3-2---5---3-2---0-2~--|-0--0--3-2---5---3-2---0-2~-----------|
E|-----------3---------3~------|-----------3---------3~---------------|
     Push Push            play 2x





e|-----------------------------|---------------------------------------------|
B|-----------------------------|---------------------------------------------|
G|-2--2------------------------|-2--2----------------------------------------|
D|-2--2--------7---------------|-2--2--------7-----------------------2-2-----|
A|-0--0--3-2---5---3-2---0-2~--|-0--0--3-2---5--------------3-2---0--0-0-----|
E|-----------3---------3~------|-----------3--------------------3------------|
     Push Push            play 2x            let ring... 



I'm gettin' hot, I've got to give a shot 
She wants it all, And that's a lot 

I'm gettin' ready, The love's lookin' steady 
It's gettin' sticky, I thought she might miss me 
She looked at me and said 

I need a little Push, push 
Gonna give a little Push, push 
If ya take a little Push, push 
Then you'll get a little Push, push 

She's lookin' fine, Flashin' like a neon sign 
She thinks it's love, I said that comes with time 

I'm gettin' ready, The love's lookin' steady 
It's gettin' sticky, I thought she might miss me 
She looked at me and said 

I need a little Push, push 
Come and give a little Push, push 
If ya take a little Push, push 
Then you'll get a little Push, push 

Whoa, yea 
Push on 

I'm gettin' ready, The love's lookin' steady 
It's gettin' sticky, I thought she might miss me 
She looked at me and said 

I need a little Push, push 
Come and give a little Push, push 
If ya take a little Push, push 
Then you'll get a little Push, push 

Woo, push, push 
Mmm, keep pushin' me 
Push, push 
Push on 
Push, push 
Ooo, yea, yea 
Push, push





| /  slide up
| \  slide down
| h  hammer-on
| p  pull-off
| ~  vibrato
| +  harmonic
| x  Mute note
===============================================================================
Добавлено: 22.04.2012
Другие материалы по этой песне:

Страница создана 01.04.2012
http://primanota.ru/cinderella/push-push-chords.htm
Привет, Гость.
Предлагаем пройти революционный курс по гитаре.
Подарок от PrimaNota.Ru, забирай!