PrimaNota.ru - самый крупный в мире бесплатный архив песенных текстов, аккордов, табулатур и нот


Children Of Bodom - Hate Crew Deathroll (album) - таба, видео

Регистрация Запомнить меня
Войти через:  Facebook Google Twitter Vk Yandex Mail.ru

Children Of Bodom - Hate Crew Deathroll (album) - таба, видео

Печатать
Просмотров: 149
Children of Bodom
Hatecrew Death Roll Album

1.Needled 24/7             |-untilted-----|
2.Sixpounder               |-agp_87-------|
3.Chokehold                |-COBHC99------|
4.Bodom Beach Terror       |-Kevin666-----|
5.Angels Don't Kill        |-Unregistered-|
6.Triple Corpse Hammerblow |-Kevin666-----|
7.You're Better off Dead   |-Kevin666-----|
8.lil bloodred riding Hood |-Kevin666-----|
9.Hatecrew Deathroll       |-Unregistered-|

-----------------------------------------------------------------------------

1.Needled 24/7

/4            4/4
  Gtr I
                   PM-------------------------
  H    Q  E  E   E S S S S S S E S S S S S S
|--------------|-----------------------------|
|--------------|-----------------------------|
|--------------|-----------------------------|
|-----------10-|-9---------------------------|
|------------8-|-7---------------------------|
|--------------|---0-0-0-0-0-0-0-0-0-0-0-0-0-|

          G5  D5F5 E5
 -------|                  PM------------------|
  E S S E  Q  E  E E   +E  S S S S S S E S S E E
|--------------------|----------------------------|
|--------------------|----------------------------|
|--------------------|----------------------------|
|---------12--7-10-9-|-(9)------------------------|
|---------10--5--8-7-|-(7)------------------------|
|-0-0-0-0------------|-----0-0-0-0-0-0-0-0-0-0-0--|



  E5 D5E5  C5 B5F5 E5                                          G5  D5F5 E5
                           PM--------------------------------|
   E E  Q   E E  E E   +E  S S S S S S E S S S S S S   E S S E  Q  E  E E
|--------------------|-------------------------------|--------------------|
|--------------------|-------------------------------|--------------------|
|--------------------|-------------------------------|--------------------|
|--9-7--9-------10-9-|-(9)---------------------------|---------12--7-10-9-|
|--7-5--7--10-9--8-7-|-(7)---------------------------|---------10--5--8-7-|
|-----------8-7------|-----0-0-0-0-0-0-0-0-0-0-0-0-0-|-0-0-0-0------------|
|
|                          PM--------------------------------|
|  E E  Q   E E  E E   +E  S S S S S S E S S S S S S   E S S E  Q  E  E E
|--------------------|-------------------------------|--------------------|
|--------------------|-------------------------------|--------------------|
|--------------------|-------------------------------|--------------------|
|----------10-9-10-9-|-(9)---------------------------|---------12--7-10-9-|
|-10-9-10--------8-7-|-(7)---------------------------|---------10--5--8-7-|
|--------------------|-----0-0-0-0-0-0-0-0-0-0-0-0-0-|-0-0-0-0------------|


                        B5        C5D5E5
                            3/4
      PM--------------|
                                  |-3-|
  +E  S S S S S S E S S Q    +Q   Q Q Q
|--------------------------|------------|
|--------------------------|------------|
|--------------------------|------------|
|-(9)-------------------4--|-(4)--5-7-9-|
|-(7)-------------------2--|-(2)--3-5-7-|
|-----0-0-0-0-0-0-0-0-0----|------------|
|
|     PM--------------|
|                                 |-3-|
| +E  S S S S S S E S S Q    +Q   Q Q Q
|--------------------------|------------|
|--------------------------|------------|
|--------------------------|------------|
|-(9)-------------------4--|-(4)--5-7-9-|
|-(7)-------------------2--|-(2)--3-5-7-|
|-----0-0-0-0-0-0-0-0-0----|------------|


 Guitar Solo 1
  F5   E5                                        G5    D5
 4/4
   W                           +W
|----------------------------|---------------------------|
|--0b6-----------------------|-(0)-----------------------|
|----------------------------|---------------------------|
|----------------------------|---------------------------|
|----------------------------|---------------------------|
|----------------------------|---------------------------|
|
|        PM------------------------------------|
|  E   E E S S S S S S E S S    S  S S S E S S E  E  E E
|----------------------------|---------------------------|
|----------------------------|---------------------------|
|----------------------------|---------------------------|
|-10---9---------------------|-------------------12-12-7-|
|--8---7---------------------|-------------------10-10-5-|
|--------0-0-0-0-0-0-0-0-0-0-|--0--0-0-0-0-0-0-0---------|


  F5  E5                              D5E5  C5B5
  +W                          +W
|---------------------------|----------------------|
|-(0)-----------------------|-(0)------------------|
|---------------------------|----------------------|
|---------------------------|----------------------|
|---------------------------|----------------------|
|---------------------------|----------------------|
|
|       PM------------------------|       PM
|  E  E E S S S S S S E S S    E  E E E E E E E
|---------------------------|----------------------|
|---------------------------|----------------------|
|---------------------------|----------------------|
|-10--9---------------------|-------9-7-9---5-4----|
|--8--7---------------------|-------7-5-7---3-2----|
|-------0-0-0-0-0-0-0-0-0-0-|--0--0-------0--------|


  F5    E5                                                                        G5          D5
   S  S  S  S  S  S  S  S  S  S  S  S  S  S  S  S    S  S  S  S  S  S  S  S  S  S  S  S  S  S  E
|-------------------------------------------------|----------------------------------------------|
|-15-12----12-15-12-15-12----12-15-12-15-12----12-|-15-12----12-15-12-15-12----12-15-12-15-12----|
|-------15----------------15----------------15----|-------15----------------15----------------15-|
|-------------------------------------------------|----------------------------------------------|
|-------------------------------------------------|----------------------------------------------|
|-------------------------------------------------|----------------------------------------------|
|
|              PM-----------------------------------------------------------|
|  E     E     E     S  S  S  S  S  S  E     S  S    S  S  S  S  E     S  S  E     E     E     E
|-------------------------------------------------|----------------------------------------------|
|-------------------------------------------------|----------------------------------------------|
|-------------------------------------------------|----------------------------------------------|
|-10-----9----------------------------------------|-------------------------------12----12-----7-|
|--8-----7----------------------------------------|-------------------------------10----10-----5-|
|--------------0-----0--0--0--0--0--0--0-----0--0-|--0--0--0--0--0-----0--0--0-------------------|


  F5    E5                                          B5          C5   D5
   S  S  S  S  S  S  S  S  S  S  S  S  S  S  S  S    E  E  E  Q    E  E  E
|-15-14-12----14-12-------12----------------------|-------------------------|
|----------15-------15-13----15-13-12-15-13-12----|-------12----------------|
|----------------------------------------------14-|-12-14----14---12-11-----|
|-------------------------------------------------|---------------------12--|
|-------------------------------------------------|-------------------------|
|-------------------------------------------------|-------------------------|
|
|              PM---------------------------|
|  E     E     E     S  S  S  S  S  S  E     E       H          Q     Q
|-------------------------------------------------|-------------------------|
|-------------------------------------------------|-------------------------|
|-------------------------------------------------|-------------------------|
|-10-----9----------------------------------------|--4----------5-----7-----|
|--8-----7----------------------------------------|--2----------3-----5-----|
|--------------0-----0--0--0--0--0--0--0-----0----|-------------------------|


 Main Theme
  E5       B5        C5      D5        E5       A5          G5       D5
  E E  E E E E E E   E E E E E E E E   E E E  E  E  E E E   E E  E E E E E E
|------------------|-----------------|---7-8----------7---|------------------|
|---8-10-7-7-7-8---|-----7-------7---|-------10-10-10---8-|-8-8-10-7-7---7---|
|-9--------------9-|-9-9---7-7-9---7-|-9------------------|------------7---7-|
|------------------|-----------------|--------------------|------------------|
|------------------|-----------------|--------------------|------------------|
|------------------|-----------------|--------------------|------------------|
|
| H        H         H       H         H         H          H        H
|------------------|-----------------|--------------------|------------------|
|------------------|-----------------|--------------------|------------------|
|------------------|-----------------|--------------------|------------------|
|-9--------4-------|-5-------7-------|-9------------------|----------7-------|
|-7--------2-------|-3-------5-------|-7---------7--------|-5--------5-------|
|------------------|-----------------|-----------5--------|-3----------------|


  E5       B5        C5      D5        E5       A5          G5       D5
                                                                      ~~~
  E E  E E E E E E   E E E E E E E E   E E E  E  E  E E E   E E  E E  H
|------------------|-----------------|---7-8----------7---|-----------------||
|---8-10-7-7-7-8---|-----7-------7---|-------10-10-10---8-|-8-8-10-7-[8]----||
|-9--------------9-|-9-9---7-7-9---7-|-9------------------|-----------------||
|------------------|-----------------|--------------------|-----------------||
|------------------|-----------------|--------------------|-----------------||
|------------------|-----------------|--------------------|-----------------||
|
| H        H         H       H         H         H          H         H
|------------------|-----------------|--------------------|-----------------||
|------------------|-----------------|--------------------|-----------------||
|------------------|-----------------|--------------------|-----------------||
|-9--------4-------|-5-------7-------|-9------------------|-----------7-----||
|-7--------2-------|-3-------5-------|-7---------7--------|-5---------5-----||
|------------------|-----------------|-----------5--------|-3---------------||


 Verse
  $
  F5 E5                                  N.C.
       PM------------------------------|
   E E E S S S S S S E S S   S S S S E E  E  E E  E
|--------------------------|------------------------|
|--------------------------|------------------------|
|--------------------------|------------------------|
|-10-9---------------------|------------------------|
|--8-7---------------------|-------------10-14-9-12-|
|------0-0-0-0-0-0-0-0-0-0-|-0-0-0-0-0-0------------|
|
|      PM------------------------------|
|  E E E S S S S S S E S S   S S S S E E  E  E E  E
|--------------------------|------------------------|
|--------------------------|------------------------|
|--------------------------|------------------------|
|-10-9---------------------|--------------9----7----|
|--8-7---------------------|----------------10----9-|
|------0-0-0-0-0-0-0-0-0-0-|-0-0-0-0-0-0------------|


  F5 E5                          E5 D5E5  C5    B5
       PM----------------------|
   E E E S S S S S S E S S   E E  E E  Q   S  S E
|--------------------------|-----------------------|
|--------------------------|-----------------------|
|--------------------------|-----------------------|
|-10-9---------------------|------9-7--9-----------|
|--8-7---------------------|------7-5--7-----------|
|------0-0-0-0-0-0-0-0-0-0-|-0-0-----------8--8-7--|
|
|      PM----------------------|
|  E E E S S S S S S E S S   E E  E E  Q   S  S E
|--------------------------|-----------------------|
|--------------------------|-----------------------|
|--------------------------|-----------------------|
|-10-9---------------------|--------------10-10-9--|
|--8-7---------------------|-----10-9-10-----------|
|------0-0-0-0-0-0-0-0-0-0-|-0-0-------------------|


  A5   C5      A5   C5      F5 E5                          E5 D5E5  C5 B5
                                 PM----------------------|
  H     H      H     H       E E E S S S S S S E S S   E E  E E  Q   E E
|------------|------------|--------------------------|-------------------|
|------------|------------|--------------------------|-------------------|
|------------|------------|--------------------------|-------------------|
|------------|------------|-10-9---------------------|------9-7--9-------|
|-7----10----|-7----10----|--8-7---------------------|------7-5--7--10-9-|
|-5-----8----|-5-----8----|------0-0-0-0-0-0-0-0-0-0-|-0-0-----------8-7-|
|
|                                PM----------------------|
| H     H      H     H       E E E S S S S S S E S S   E E  E E  Q   E E
|------------|------------|--------------------------|-------------------|
|------------|------------|--------------------------|-------------------|
|------------|------------|--------------------------|-------------------|
|------------|------------|-10-9---------------------|--------------10-9-|
|-7----10----|-7----10----|--8-7---------------------|-----10-9-10-------|
|-5-----8----|-5-----8----|------0-0-0-0-0-0-0-0-0-0-|-0-0---------------|


  F5 E5                                  N.C.
       PM------------------------------|
   E E E S S S S S S E S S   S S S S E E  E  E E  E
|--------------------------|------------------------|
|--------------------------|------------------------|
|--------------------------|------------------------|
|-10-9---------------------|------------------------|
|--8-7---------------------|-------------10-14-9-12-|
|------0-0-0-0-0-0-0-0-0-0-|-0-0-0-0-0-0------------|
|
|      PM------------------------------|
|  E E E S S S S S S E S S   S S S S E E  E  E E  E
|--------------------------|------------------------|
|--------------------------|------------------------|
|--------------------------|------------------------|
|-10-9---------------------|--------------9----7----|
|--8-7---------------------|----------------10----9-|
|------0-0-0-0-0-0-0-0-0-0-|-0-0-0-0-0-0------------|


  F5 E5                          E5 D5E5  C5    B5
       PM----------------------|
   E E E S S S S S S E S S   E E  E E  Q   S  S E
|--------------------------|-----------------------|
|--------------------------|-----------------------|
|--------------------------|-----------------------|
|-10-9---------------------|------9-7--9-----------|
|--8-7---------------------|------7-5--7-----------|
|------0-0-0-0-0-0-0-0-0-0-|-0-0-----------8--8-7--|
|
|      PM----------------------|
|  E E E S S S S S S E S S   E E  E E  Q   S  S E
|--------------------------|-----------------------|
|--------------------------|-----------------------|
|--------------------------|-----------------------|
|-10-9---------------------|--------------10-10-9--|
|--8-7---------------------|-----10-9-10-----------|
|------0-0-0-0-0-0-0-0-0-0-|-0-0-------------------|


                                                              To Coda
  A5   C5      A5   C5      F5 E5                    N.C.
                                 PM--------------|
  H     H      H     H       E E E S S S S S S E E   E E E E E E E E
|------------|------------|------------------------|------------------||
|------------|------------|------------------------|------------------||
|------------|------------|------------------------|-9-8-9-8----------||
|------------|------------|-10-9-------------------|---------6-----6--||
|-7----10----|-7----10----|--8-7-------------------|-----------7-8----||
|-5-----8----|-5-----8----|------0-0-0-0-0-0-0-0-0-|------------------||
|
|                                PM--------------|
| H     H      H     H       E E E S S S S S S E E   E E E E E E E E
|------------|------------|------------------------|------------------||
|------------|------------|------------------------|------------------||
|------------|------------|------------------------|-4-3-4-3-1-----1--||
|------------|------------|-10-9-------------------|-----------2-3----||
|-7----10----|-7----10----|--8-7-------------------|------------------||
|-5-----8----|-5-----8----|------0-0-0-0-0-0-0-0-0-|------------------||


 Bridge
  E5
  Gtrs I, II
  E E Q  H      W          W          W
|-------------|----------|----------|------|
|-------------|----------|----------|------|
|-------------|----------|----------|------|
|-------------|----------|----------|------|
|-2-2---------|----------|----------|------|
|-0-0---------|----------|----------|------|


  E5
  E E Q  H      W          W          W
|-------------|----------|----------|------||
|-------------|----------|----------|------||
|-------------|----------|----------|------||
|-------------|----------|----------|------||
|-2-2---------|----------|----------|------||
|-0-0---------|----------|----------|------||


 Main Theme
  E5       B5        C5      D5        E5       A5          G5       D5
  Gtr I
  E E  E E E E E E   E E E E E E E E   E E E  E  E  E E E   E E  E E E E E E
|------------------|-----------------|---7-8----------7---|------------------|
|---8-10-7-7-7-8---|-----7-------7---|-------10-10-10---8-|-8-8-10-7-7---7---|
|-9--------------9-|-9-9---7-7-9---7-|-9------------------|------------7---7-|
|------------------|-----------------|--------------------|------------------|
|------------------|-----------------|--------------------|------------------|
|------------------|-----------------|--------------------|------------------|
|
| Gtr II
| E E  E E E E E E   E E E E E E E E   E E E  E  E  E E E   E E  E E E E E E
|------------------|-----------------|--------------------|------------------|
|------------------|-----------------|--------------------|------------------|
|------------------|-----------------|--------------------|------------------|
|-9-9--9-9-4-4-4-4-|-5-5-5-5-7-7-7-7-|-9-9-9--9--2--2-2-2-|----------7-7-7-7-|
|-7-7--7-7-2-2-2-2-|-3-3-3-3-5-5-5-5-|-7-7-7--7--0--0-0-0-|-5-5--5-5-5-5-5-5-|
|------------------|-----------------|--------------------|-3-3--3-3---------|


  E5       B5        C5      D5        E5       A5          G5       D5
                                                                      ~~~
  E E  E E E E E E   E E E E E E E E   E E E  E  E  E E E   E E  E E  H
|------------------|-----------------|---7-8----------7---|-----------------||
|---8-10-7-7-7-8---|-----7-------7---|-------10-10-10---8-|-8-8-10-7-[8]----||
|-9--------------9-|-9-9---7-7-9---7-|-9------------------|-----------------||
|------------------|-----------------|--------------------|-----------------||
|------------------|-----------------|--------------------|-----------------||
|------------------|-----------------|--------------------|-----------------||
|
| E E  E E E E E E   E E E E E E E E   E E E  E  E  E E E   E E  E E  H
|------------------|-----------------|--------------------|-----------------||
|------------------|-----------------|--------------------|-----------------||
|------------------|-----------------|--------------------|-----------------||
|-9-9--9-9-4-4-4-4-|-5-5-5-5-7-7-7-7-|-9-9-9--9--2--2-2-2-|-----------7-----||
|-7-7--7-7-2-2-2-2-|-3-3-3-3-5-5-5-5-|-7-7-7--7--0--0-0-0-|-5-5--5-5--5-----||
|------------------|-----------------|--------------------|-3-3--3-3--------||


 Bridge
  E5                                           EbC5
  Gtrs I, II
                                           PM
  E E Q  H      W          W          H    E E E E
|-------------|----------|----------|--------------|
|-------------|----------|----------|--------------|
|-------------|----------|----------|--------------|
|-------------|----------|----------|--------9-8-5-|
|-2-2---------|----------|----------|--------7-6-3-|
|-0-0---------|----------|----------|------0-------|


  E5                                  B5
  E E Q  H      W          W          E E E E E E E E
|-------------|----------|----------|-----------------|
|-------------|----------|----------|-----------------|
|-------------|----------|----------|-----------------|
|-------------|----------|----------|-9-9-9-9-9-9-9-9-|
|-2-2---------|----------|----------|-9-9-9-9-9-9-9-9-|
|-0-0---------|----------|----------|-7-7-7-7-7-7-7-7-|


 Chorus
  &
  E5    F#5     G5   D      N.C.
  Gtr I
   H     H      H    H       E  S  S  E  S  S  E  S  S  S  S  S S
|-------------|-----------|---------------------------------------|
|-------------|-----------|---------------------------------------|
|-------------|-----------|---------------------------------------|
|--2-----4----|-5----4----|---------------------------------------|
|--2-----4----|-5----5----|--3--3--3--3--3--3--3--3--3--3--5--3-2-|
|--0-----2----|-3---------|---------------------------------------|
|
| Gtr II
|  H     H      H    H       E  S  S  E  S  S  E  S  S  S  S  S S
|-------------|-----------|---------------------------------------|
|-12----10----|-8----7----|---------------------------------------|
|-------------|-----------|---------------------------------------|
|--9-----7----|-5----4----|---------------------------------------|
|-------------|-----------|-10-10-10-10-10-10-10-10-10-10-12-10-9-|
|-------------|-----------|---------------------------------------|


                                          C5    D5      E5   D5
   E  S  S  E  S  S  E  S  S  S  S  S S    H     H      H    H
|---------------------------------------|-------------|-----------|
|---------------------------------------|-------------|-----------|
|---------------------------------------|--5-----7----|-9----7----|
|---------------------------------------|--5-----7----|-9----7----|
|--3--3--3--3--3--3--3--3--3--3--5p=3p2-|--3-----5----|-7----5----|
|---------------------------------------|-------------|-----------|
|
|  E  S  S  E  S  S  E  S  S  S  S  S S    H     H      H    H
|---------------------------------------|-------------|-----------|
|---------------------------------------|-12----10----|-8----7----|
|---------------------------------------|-------------|-----------|
|---------------------------------------|--9-----7----|-5----4----|
|-10-10-10-10-10-10-10-10-10-10-12-10-9-|-------------|-----------|
|---------------------------------------|-------------|-----------|


  N.C.
  S S S S S S S S S S S S S  S S S   S S S S S S S S S S S S S  S S S
|----------------------------------|----------------------------------|
|----------------------------------|----------------------------------|
|----------------------------------|----------------------------------|
|----------------------------------|----------------------------------|
|-7-7-7-7-7-7-7-7-7-7-7-7-7--8-7-5-|-7-7-7-7-7-7-7-7-7-7-7-7-7--8-7-5-|
|----------------------------------|----------------------------------|
|
| S S S S S S S S S S S S S  S S S   S S S S S S S S S S S S S  S S S
|----------------------------------|----------------------------------|
|----------------------------------|----------------------------------|
|----------------------------------|----------------------------------|
|-9-9-9-9-9-9-9-9-9-9-9-9-9-10-9-7-|-9-9-9-9-9-9-9-9-9-9-9-9-9-10-9-7-|
|----------------------------------|----------------------------------|
|----------------------------------|----------------------------------|


  E5    F#5     G5   D      N.C.
   H     H      H    H       E  S  S  E  S  S  E  S  S  S  S  S S
|-------------|-----------|---------------------------------------|
|-------------|-----------|---------------------------------------|
|-------------|-----------|---------------------------------------|
|--2-----4----|-5----4----|---------------------------------------|
|--2-----4----|-5----5----|--3--3--3--3--3--3--3--3--3--3--5--3-2-|
|--0-----2----|-3---------|---------------------------------------|
|
|  H     H      H    H       E  S  S  E  S  S  E  S  S  S  S  S S
|-------------|-----------|---------------------------------------|
|-12----10----|-8----7----|---------------------------------------|
|-------------|-----------|---------------------------------------|
|--9-----7----|-5----4----|---------------------------------------|
|-------------|-----------|-10-10-10-10-10-10-10-10-10-10-12-10-9-|
|-------------|-----------|---------------------------------------|


                                          C5    D5      E5   D5
   E  S  S  E  S  S  E  S  S  S  S  S S    H     H      H    H
|---------------------------------------|-------------|-----------|
|---------------------------------------|-------------|-----------|
|---------------------------------------|--5-----7----|-9----7----|
|---------------------------------------|--5-----7----|-9----7----|
|--3--3--3--3--3--3--3--3--3--3--5p=3p2-|--3-----5----|-7----5----|
|---------------------------------------|-------------|-----------|
|
|  E  S  S  E  S  S  E  S  S  S  S  S S    H     H      H    H
|---------------------------------------|-------------|-----------|
|---------------------------------------|-12----10----|-8----7----|
|---------------------------------------|-------------|-----------|
|---------------------------------------|--9-----7----|-5----4----|
|-10-10-10-10-10-10-10-10-10-10-12-10-9-|-------------|-----------|
|---------------------------------------|-------------|-----------|


                     To Dbl. Coda
  N.C.
                                      ~~~
  S S S S S S S S S S S S S  S S S    Q   Q  H
|----------------------------------|--------------|
|----------------------------------|--------------|
|----------------------------------|--------------|
|----------------------------------|--------------|
|-7-7-7-7-7-7-7-7-7-7-7-7-7--8-7-5-|-[7]----------|
|----------------------------------|--------------|
|
|                                     ~~~
| S S S S S S S S S S S S S  S S S    Q   Q  H
|----------------------------------|--------------|
|----------------------------------|--------------|
|----------------------------------|--------------|
|-9-9-9-9-9-9-9-9-9-9-9-9-9-10-9-7-|-[9]----------|
|----------------------------------|--------------|
|----------------------------------|--------------|


 Keyboard Solo
  E5
  Gtrs I, II
  PM------------------------------------------------------|
  S S S S S S S S S S S S S S S S   S S S S S S S S S S S S Q
|---------------------------------|----------------------------|
|---------------------------------|----------------------------|
|---------------------------------|-------------------------9--|
|---------------------------------|-------------------------9--|
|---------------------------------|-------------------------7--|
|-0-0-0-0-0-0-0-0-0-0-0-0-0-0-0-0-|-0-0-0-0-0-0-0-0-0-0-0-0----|


  E5                                                        F5
  PM------------------------------------------------------|
  S S S S S S S S S S S S S S S S   S S S S S S S S S S S S  Q
|---------------------------------|-----------------------------|
|---------------------------------|-----------------------------|
|---------------------------------|-------------------------10--|
|---------------------------------|-------------------------10--|
|---------------------------------|--------------------------8--|
|-0-0-0-0-0-0-0-0-0-0-0-0-0-0-0-0-|-0-0-0-0-0-0-0-0-0-0-0-0-----|


  E5
  PM------------------------------------------------------|
  S S S S S S S S S S S S S S S S   S S S S S S S S S S S S Q
|---------------------------------|----------------------------|
|---------------------------------|----------------------------|
|---------------------------------|-------------------------9--|
|---------------------------------|-------------------------9--|
|---------------------------------|-------------------------7--|
|-0-0-0-0-0-0-0-0-0-0-0-0-0-0-0-0-|-0-0-0-0-0-0-0-0-0-0-0-0----|


                                   D.S. al Coda
                                   D.S. al Coda
  E5                                C5 G5 D5 A5
  Gtr I
  PM----------------------------|
  S S S S S S S S S S S S S S S S   Q  Q  Q  Q
|---------------------------------|-------------||
|---------------------------------|-------------||
|---------------------------------|-5-----7-----||
|---------------------------------|-5--5--7--7--||
|---------------------------------|-3--5--5--7--||
|-0-0-0-0-0-0-0-0-0-0-0-0-0-0-0-0-|----3-----5--||
|
| Gtr II
| PM----------------------------|
| S S S S S S S S S S S S S S S S   Q  Q  Q  Q
|---------------------------------|-------------||
|---------------------------------|-------------||
|---------------------------------|-5-----7-----||
|---------------------------------|-5--5--7--7--||
|---------------------------------|-3--5--5--7--||
|-0-0-0-0-0-0-0-0-0-0-0-0-0-0-0-0-|----3-----5--||


  &&
  N.C.
  S S S S S S S S S S S S S  S S S
|------------------------------------|
|------------------------------------|
|------------------------------------|
|------------------------------------|
|-7-7-7-7-7-7-7-7-7-7-7-7-7--8-7-5---|
|------------------------------------|
|
| S S S S S S S S S S S S S  S S S
|------------------------------------|
|------------------------------------|
|------------------------------------|
|-9-9-9-9-9-9-9-9-9-9-9-9-9-10-9-7---|
|------------------------------------|
|------------------------------------|


 Interlude
  C5          Bb5   C5          Bb5   C5          Bb5   C5      C#C Bb
                                                                |-3-|
  E E E E E E E E   E E E E E E E E   E E E E E E E E   E E E E Q Q Q
|-----------------|-----------------|-----------------|----------------|
|-------------6---|-8-------8---6---|-------------6---|-8--------------|
|-8-5-5-5-8-5---5-|---5-5-5---5---5-|-8-5-5-5-8-5---5-|---5-5-5-6-5----|
|-----------------|-----------------|-----------------|-------------8--|
|-----------------|-----------------|-----------------|----------------|
|-----------------|-----------------|-----------------|----------------|
|
|                                                               |-3-|
| E E Q   Q   Q     E E Q   Q   E E   E E Q   Q   Q     E E Q   Q Q Q
|-----------------|-----------------|-----------------|----------------|
|-----------------|-----------------|-----------------|----------------|
|-5---------------|-5---------------|-5-----------3---|-5--------------|
|-5-----------3---|-5-----------3-3-|-5-----------3---|-5--------------|
|-3-----------1---|-3-----------1-1-|-3-----------1---|-3-------4-3-1--|
|-----------------|-----------------|-----------------|----------------|


  C5                                                      Bb5
                                                                      ~~~
  E E E E E E E E    E  E E E E E E E   E E E E E E E E   E E E E Q   Q
|-----------------|-------------------|-----------------|-----------------|
|-------------6---|--8--------8---6---|-------------6---|-----------------|
|-8-5-5-5-8-5---5-|-----5-5-5---5---5-|-8-5-5-5-8-5---5-|-8-5-7-5-7--[7]--|
|-----------------|-------------------|-----------------|-----------------|
|-----------------|-------------------|-----------------|-----------------|
|-----------------|-------------------|-----------------|-----------------|
|
|                             PM----|                     PM----|     ~~~
| W                 +H        E E E E   W                 E E E E Q   Q
|-----------------|-------------------|-----------------|-----------------|
|-----------------|-------------------|-----------------|-----------------|
|-5---------------|-(5)---------------|-5---------------|------------[7]--|
|-5---------------|-(5)---------------|-5---------------|---------3-------|
|-3---------------|-(3)-------3-3-3-3-|-3---------------|-1-1-1-1-1-------|
|-----------------|-------------------|-----------------|-----------------|


  C5                                    Bb5
                                           PM   PM     PM   PM
  E E E E E E E E    E  E E E E E E E   Q  E Q  E Q    E Q  E  Q  Q
|-----------------|-------------------|--------------|---------------|
|-------------6---|--8--------8---6---|--------------|---------------|
|-8-5-5-5-8-5---5-|-----5-5-5---5---5-|-8----7----8--|---7----10--7--|
|-----------------|-------------------|-8--8-8--8-8--|-8-8--8--8--8--|
|-----------------|-------------------|--------------|---------------|
|-----------------|-------------------|--------------|---------------|
|
|                             PM----|      PM   PM     PM   PM
| W                 +H        E E E E   Q  E Q  E Q    E Q  E  Q  Q
|-----------------|-------------------|--------------|---------------|
|-----------------|-------------------|--------------|---------------|
|-5---------------|-(5)---------------|--------------|---------------|
|-5---------------|-(5)---------------|-3----3----3--|---3-----3--3--|
|-3---------------|-(3)-------3-3-3-3-|-1--1-1--1-1--|-1-1--1--1--1--|
|-----------------|-------------------|--------------|---------------|


  Bb5      C5         D5
   E E E E  E E E E    E E E E  E E E E
|-------------------|-------------------|
|---------------8---|-10-------10---8---|
|-10-7-7-7-10-7---7-|----7-7-7----7---7-|
|-------------------|-------------------|
|-------------------|-------------------|
|-------------------|-------------------|
|
|  H        H          W
|-------------------|-------------------|
|-------------------|-------------------|
|-------------------|-------------------|
|--3--------5-------|--7----------------|
|--1--------3-------|--5----------------|
|-------------------|-------------------|


  Bb5      C5         D5
   E E E E  E E E E    E E E E  E E E E
|-------------------|-------------------|
|---------------8---|-10-------10---8---|
|-10-7-7-7-10-7---7-|----7-7-7----7---7-|
|-------------------|-------------------|
|-------------------|-------------------|
|-------------------|-------------------|
|
|  H        H          W
|-------------------|-------------------|
|-------------------|-------------------|
|-------------------|-------------------|
|--3--------5-------|--7----------------|
|--1--------3-------|--5----------------|
|-------------------|-------------------|


  Bb5      C5         D5
   E E E E  E E E E    E E E E  E E E E
|-------------------|-------------------|
|---------------8---|-10-------10---8---|
|-10-7-7-7-10-7---7-|----7-7-7----7---7-|
|-------------------|-------------------|
|-------------------|-------------------|
|-------------------|-------------------|
|
|  H        H          W
|-------------------|-------------------|
|-------------------|-------------------|
|-------------------|-------------------|
|--3--------5-------|--7----------------|
|--1--------3-------|--5----------------|
|-------------------|-------------------|


  Bb5      C5         D5
   E E E E  E E E E    E E E E  E E E E
|-------------------|-------------------|
|---------------8---|-10-------10---8---|
|-10-7-7-7-10-7---7-|----7-7-7----7---7-|
|-------------------|-------------------|
|-------------------|-------------------|
|-------------------|-------------------|
|
|  H        H          W
|-------------------|-------------------|
|-------------------|-------------------|
|-------------------|-------------------|
|--3--------5-------|--7----------------|
|--1--------3-------|--5----------------|
|-------------------|-------------------|


 Guitar Solo
  Bb5        C5            D5
   Q    E  E  E  E  E  E    +E   E  E  E  E  E  E  E
|---------17-------------|---------------17----------|
|-18---20----20-18-17----|---------18-20----20-18----|
|---------------------19-|-(19)-19----------------17S|
|------------------------|---------------------------|
|------------------------|---------------------------|
|------------------------|---------------------------|
|
|  E E  E  E  E  E  E  E     E   E  E  E  E  E  E  E
|------------------------|---------------------------|
|------------------------|---------------------------|
|------------------------|---------------------------|
|--3-3--3--3--5--5--5--5-|---7---7--7--7--7--7--7--7-|
|--1-1--1--1--3--3--3--3-|---5---5--5--5--5--5--5--5-|
|------------------------|---------------------------|


  G#5        Eb5                 D5                            C5
   Q    E  E  S  S  S  S  E  E    S  S  S  S  E  S  S  S  S  E  Q
|------20----22h23p22h23-22-20-|-21h22p21h22-21-17h18p17h18-17------|
|---------21-------------------|------------------------------------|
|-20---------------------------|-------------------------------19---|
|------------------------------|------------------------------------|
|------------------------------|------------------------------------|
|------------------------------|------------------------------------|
|
|  E E  E  E  E     E     E  E    E     E     E  E     E     E  E E
|------------------------------|------------------------------------|
|------------------------------|------------------------------------|
|------------------------------|------------------------------------|
|-------------8-----8-----8--8-|--7-----7-----7--7-----7-----7--5-5-|
|--6-6--6--6--6-----6-----6--6-|--5-----5-----5--5-----5-----5--3-3-|
|--4-4--4--4-------------------|------------------------------------|


  Bb5                     C5                        D5
   S  S  S  S  S  S  S  S  S  S  S  S  S  S  S  S    S  S  S  S  S  S  S  S  S  S  S  S  S  S  E
|-------------------------------17----15-17-18-15-|-17-18-20-19-18-17-18-17----------------------|
|-18-17-15----15-17-18-15-17-18----18-------------|-------------------------20-19-18-17-18-17----|
|----------17-------------------------------------|-------------------------------------------19-|
|-------------------------------------------------|----------------------------------------------|
|-------------------------------------------------|----------------------------------------------|
|-------------------------------------------------|----------------------------------------------|
|
|  E     E     E     E     E     E     E     E       E     E     E     E     E     E     E     E
|-------------------------------------------------|----------------------------------------------|
|-------------------------------------------------|----------------------------------------------|
|-------------------------------------------------|----------------------------------------------|
|--3-----3-----3-----3-----5-----5-----5-----5----|--7-----7-----7-----7-----7-----7-----7-----7-|
|--1-----1-----1-----1-----3-----3-----3-----3----|--5-----5-----5-----5-----5-----5-----5-----5-|
|-------------------------------------------------|----------------------------------------------|


  G#5             Eb5           D5                                                              C5
   Q.        Q.        Q         E     S       S       S       S       S       S       H
|---------------------17b18---|-20b22-20pb22==20pb22==20pb22==20pb22==20pb22==20pb22==20pb22=========|
|-----------14b16-------------|----------------------------------------------------------------------|
|-15b17-----------------------|----------------------------------------------------------------------|
|-----------------------------|----------------------------------------------------------------------|
|-----------------------------|----------------------------------------------------------------------|
|-----------------------------|----------------------------------------------------------------------|
|
|  E    E E  E    E E  E    E    E     E               E               E               E      E E E
|-----------------------------|----------------------------------------------------------------------|
|-----------------------------|----------------------------------------------------------------------|
|-----------------------------|----------------------------------------------------------------------|
|-----------------8-8--8----8-|--7-----7---------------7---------------7---------------7------7-5-5--|
|--6----6-6--6----6-6--6----6-|--5-----5---------------5---------------5---------------5------5-3-3--|
|--4----4-4--4----------------|----------------------------------------------------------------------|


 Keyboard Solo 2
  Bb5     C5        D5                G#5     Eb5       D5          C5
  Gtrs I, II
  E E E E E E E E   E E E E E E E E   E E E E E E E E   E E E E E E E E
|-----------------|-----------------|-----------------|-----------------|
|-----------------|-----------------|-----------------|-----------------|
|-----------------|-----------------|-----------------|-----------------|
|-3-3-3-3-5-5-5-5-|-7-7-7-7-7-7-7-7-|---------8-8-8-8-|-7-7-7-7-7-7-5-5-|
|-1-1-1-1-3-3-3-3-|-5-5-5-5-5-5-5-5-|-6-6-6-6-6-6-6-6-|-5-5-5-5-5-5-3-3-|
|-----------------|-----------------|-4-4-4-4---------|-----------------|


  E E E E E E E E   E E E E E E E E   E E E E E E E E   E E E E E E E E
|-----------------|-----------------|-----------------|-----------------|
|-----------------|-----------------|-----------------|-----------------|
|-----------------|-----------------|-----------------|-----------------|
|-3-3-3-3-5-5-5-5-|-7-7-7-7-7-7-7-7-|---------8-8-8-8-|-7-7-7-7-7-7-5-5-|
|-1-1-1-1-3-3-3-3-|-5-5-5-5-5-5-5-5-|-6-6-6-6-6-6-6-6-|-5-5-5-5-5-5-3-3-|
|-----------------|-----------------|-4-4-4-4---------|-----------------|


 Main Theme
  C5       B5        C5      D5        E5       A5          G5       D5
  Gtr I
  E E  E E E E E E   E E E E E E E E   E E E  E  E  E E E   E E  E E E E E E
|------------------|-----------------|---7-8----------7---|------------------|
|---8-10-7-7-7-8---|-----7-------7---|-------10-10-10---8-|-8-8-10-7-7---7---|
|-9--------------9-|-9-9---7-7-9---7-|-9------------------|------------7---7-|
|------------------|-----------------|--------------------|------------------|
|------------------|-----------------|--------------------|------------------|
|------------------|-----------------|--------------------|------------------|
|
| Gtr II
| H        H         H       H         H         H          H        H
|------------------|-----------------|--------------------|------------------|
|------------------|-----------------|--------------------|------------------|
|------------------|-----------------|--------------------|------------------|
|-9--------4-------|-5-------7-------|-9------------------|----------7-------|
|-7--------2-------|-3-------5-------|-7---------7--------|-5--------5-------|
|------------------|-----------------|-----------5--------|-3----------------|


  E5       B5        C5      D5
  E E  E E E E E E   E E E E E E E E
|------------------|-----------------|
|---8-10-7-7-7-8---|-----7-------7---|
|-9--------------9-|-9-9---7-7-9---7-|
|------------------|-----------------|
|------------------|-----------------|
|------------------|-----------------|
|
| H        H         H       H
|------------------|-----------------|
|------------------|-----------------|
|------------------|-----------------|
|-9--------4-------|-5-------7-------|
|-7--------2-------|-3-------5-------|
|------------------|-----------------|


  E5       A5          G5       D5        E5     C5D5F5
                                 ~~~
                                                 |-3--|
  E E E  E  E  E E E   E E  E E  H        E E Q  Q Q  Q
|---7-8----------7---|-----------------||----------------||
|-------10-10-10---8-|-8-8-10-7-[8]----||----------------||
|-9------------------|-----------------||----------------||
|--------------------|-----------------||-2------5-7-10--||
|--------------------|-----------------||-2------3-5--8--||
|--------------------|-----------------||-0--------------||
|
|                                                |-3--|
| H         H          H         H        E E Q  Q Q  Q
|--------------------|-----------------||----------------||
|--------------------|-----------------||----------------||
|--------------------|-----------------||----------------||
|-9------------------|-----------7-----||-2------5-7-10--||
|-7---------7--------|-5---------5-----||-2------3-5--8--||
|-----------5--------|-3---------------||-0--------------||


 Bridge
  E5                                         C C#E
  Gtrs I, II
  E E Q  H      W          W          H    E E E E
|-------------|----------|----------|--------------|
|-------------|----------|----------|--------------|
|-------------|----------|----------|--------------|
|-------------|----------|----------|--------------|
|-2-2---------|----------|----------|------------7-|
|-0-0---------|----------|----------|--------8-9---|


  E5                                                    D5E5
  PM------------------------------------------------|
  E E E E E E E E   E E E E E E E E   E E E E E E E E   E E Q  H
|-----------------|-----------------|-----------------|-------------||
|-----------------|-----------------|-----------------|-------------||
|-----------------|-----------------|-----------------|-------------||
|-----------------|-----------------|-----------------|-7-9---------||
|-----------------|-----------------|-----------------|-5-7---------||
|-0-0-0-0-0-0-0-0-|-0-0-0-0-0-0-0-0-|-0-0-0-0-0-0-0-0-|-------------||


 Out-Chorus
  E5    F#5     G5   D      N.C.
  Gtr I
   H     H      H    H       E  S  S  E  S  S  E  S  S  S  S  S S
|-------------|-----------|---------------------------------------|
|-------------|-----------|---------------------------------------|
|-------------|-----------|---------------------------------------|
|--2-----4----|-5----4----|---------------------------------------|
|--2-----4----|-5----5----|--3--3--3--3--3--3--3--3--3--3--5--3-2-|
|--0-----2----|-3---------|---------------------------------------|
|
| Gtr II
|  H     H      H    H       E  S  S  E  S  S  E  S  S  S  S  S S
|-------------|-----------|---------------------------------------|
|-12----10----|-8----7----|---------------------------------------|
|-------------|-----------|---------------------------------------|
|--9-----7----|-5----4----|---------------------------------------|
|-------------|-----------|-10-10-10-10-10-10-10-10-10-10-12-10-9-|
|-------------|-----------|---------------------------------------|


   E  S  S  E  S  S  E  S  S  S  S  S S
|-----------------------------------------|
|-----------------------------------------|
|-----------------------------------------|
|-----------------------------------------|
|--3--3--3--3--3--3--3--3--3--3--5--3-2---|
|-----------------------------------------|
|
|  E  S  S  E  S  S  E  S  S  S  S  S S
|-----------------------------------------|
|-----------------------------------------|
|-----------------------------------------|
|-----------------------------------------|
|-10-10-10-10-10-10-10-10-10-10-12-10-9---|
|-----------------------------------------|


  C5    D5      E5   D5      N.C.
   H     H      H     H      S S S S S S S S S S S S S  S S S
|-------------|------------|----------------------------------|
|-------------|------------|----------------------------------|
|--5-----7----|-9-----7----|----------------------------------|
|--5-----7----|-9-----7----|----------------------------------|
|--3-----5----|-7-----5----|-7-7-7-7-7-7-7-7-7-7-7-7-7--8-7-5-|
|-------------|------------|----------------------------------|
|
|  H     H      H     H      S S S S S S S S S S S S S  S S S
|-------------|------------|----------------------------------|
|-12----10----|-8----10----|----------------------------------|
|-------------|------------|----------------------------------|
|--9-----7----|-5-----7----|-9-9-9-9-9-9-9-9-9-9-9-9-9-10-9-7-|
|-------------|------------|----------------------------------|
|-------------|------------|----------------------------------|


  S S S S S S S S S S S S S  S S S
|-------------------------------------|
|-------------------------------------|
|-------------------------------------|
|-------------------------------------|
|-7-7-7-7-7-7-7-7-7-7-7-7-7--8-7-5----|
|-------------------------------------|
|
| S S S S S S S S S S S S S  S S S
|-------------------------------------|
|-------------------------------------|
|-------------------------------------|
|-9-9-9-9-9-9-9-9-9-9-9-9-9-10-9-7----|
|-------------------------------------|
|-------------------------------------|


  E5    F#5     G5   D      N.C.
   H     H      H    H       E  S  S  E  S  S  E  S  S  S  S  S S
|-------------|-----------|---------------------------------------|
|-------------|-----------|---------------------------------------|
|-------------|-----------|---------------------------------------|
|--2-----4----|-5----4----|---------------------------------------|
|--2-----4----|-5----5----|--3--3--3--3--3--3--3--3--3--3--5--3-2-|
|--0-----2----|-3---------|---------------------------------------|
|
|  H     H      H    H       E  S  S  E  S  S  E  S  S  S  S  S S
|-------------|-----------|---------------------------------------|
|-12----10----|-8----7----|---------------------------------------|
|-------------|-----------|---------------------------------------|
|--9-----7----|-5----4----|---------------------------------------|
|-------------|-----------|-10-10-10-10-10-10-10-10-10-10-12-10-9-|
|-------------|-----------|---------------------------------------|


   E  S  S  E  S  S  E  S  S  S  S  S S
|-----------------------------------------|
|-----------------------------------------|
|-----------------------------------------|
|-----------------------------------------|
|--3--3--3--3--3--3--3--3--3--3--5--3-2---|
|-----------------------------------------|
|
|  E  S  S  E  S  S  E  S  S  S  S  S S
|-----------------------------------------|
|-----------------------------------------|
|-----------------------------------------|
|-----------------------------------------|
|-10-10-10-10-10-10-10-10-10-10-12-10-9---|
|-----------------------------------------|


  G     Asus4   C     DXI       N.C.
   H     H       H     H        S S S S S S S S S S S S S  S S S
|-------------|-------------||-----------------------------------|
|-------------|-------------||o----------------------------------|
|--4-----7----|--9----11----||--9-9-9-9-9-9-9-9-9-9-9-9-9-10-9-7-|
|--5-----7----|-10----12----||-----------------------------------|
|-------------|-------------||o----------------------------------|
|-------------|-------------||-----------------------------------|
|
|  H     H       H     H        S S S S S S S S S S S S S  S S S
|-------------|-------------||-----------------------------------|
|-12----10----|--8----10----||o----------------------------------|
|-------------|-------------||-----------------------------------|
|--9-----7----|--5-----7----||--9-9-9-9-9-9-9-9-9-9-9-9-9-10-9-7-|
|-------------|-------------||o----------------------------------|
|-------------|-------------||-----------------------------------|


  S S S S S S S S S S S S S  S S S
|--------------------------------------||
|-------------------------------------o||
|-9-9-9-9-9-9-9-9-9-9-9-9-9-10-9-7-----||
|--------------------------------------||
|-------------------------------------o||
|--------------------------------------||
|
| S S S S S S S S S S S S S  S S S
|--------------------------------------||
|-------------------------------------o||
|--------------------------------------||
|-9-9-9-9-9-9-9-9-9-9-9-9-9-10-9-7-----||
|-------------------------------------o||
|--------------------------------------||


  E5     D5     C5                 N.C.            E5
                           ~~~
  E  E E E  E E Q    +Q    H.                      Q  Q  H
|------------------|-----------------------------|------------*|
|------------------|-----------------------------|------------*|
|------------------|------[5]--------------------|------------*|
|----4-5-7--5-4----|-----------------------------|-2----------*|
|-7-------------7--|-(7)--(7)--------------------|-2----------*|
|------------------|-----------------------------|-0----------*|
|
| Q.     Q.     Q    +H        +E  S  S S S  S S   Q  Q  H
|------------------|-----------------------------|------------*|
|------------------|-----------------------------|------------*|
|-9------7------5--|-(5)-------(5)---------------|------------*|
|-9------7------5--|-(5)-------(5)-9-10-9-7------|------------*|
|-7------5------3--|-(3)-------(3)----------10-9-|-7----------*|
|------------------|-----------------------------|------------*|

-----------------------------------------------------------------------------

2.Sixpounder

Children of Bodom
 Sixpounder
 From album: Hate crew deathroll
 Tabbed: agp_87
 
 
 Tuning D (D G C F A D)
 
 Riff 1
|---------------------------------------------------------------------------|
|---------------------------------------------------------------------------|
|---------------------------------------------------------------------------|
|---------------------------------------------------------------------5\4---|
|---2----2-6-5-3-5-4-3-2-------3---------2--6-5-3-5-4-3-2-----3/4-----3\2---|
|-0-0----0-4-3-1-3-2-1-0-00000-1-00000---0--4-3-1-3-2-1-0-0-0-1/2-0-0-------|



|---------------------------------------------------------------------------|
|---------------------------------------------------------------------------|
|------------------------------------------------------------------------7--|
|---------------------------------------------------------------5\4-\----7--|
|--2-6-5-3-5-4-3-2-------3---------2--6-5-3-5-4-3-2-----3/4-----3\2-\----5--|
|--0-4-3-1-3-2-1-0-00000-1-00000---0--4-3-1-3-2-1-0-0-0-1/2-0-0-------------|


 Riff 2
|----------------------------|----------|----------------------------|
|----------------------------|-15b17~---|----------------------------|
|-------Drums and keyboards--|----------|-------------------7--------|
|----------------------------|----------|-------------------7--------|
|----------------------------|----------|-------------------5--------|
|----------------------------|----------|----------------------------|

 Riff 3
 2x
|-------------------------------------------------------------|
|-------------------------------------------------------------|
|--7-------8-7-------5-7----------------7-------8-7-------5-7-|
|--7-------8-7-------5-7----------------7-------8-7-------5-7-|
|----0-0-0-----0-0-0-----0-0-0-0-0-0-0----0-0-0-----0-0-0-----|
|-------------------------------------------------------------|

|------------------------|
|------------------------|
|-------1010101014141414-|
|-121212-----------------|
|------------------------|
|------------------------|



 Riff 4
|------------------------------------------------------------------|
|------------------------------------------------------------------|
|--------------------------------------------------------------7---|
|-2---2--------2---2----------------2---2------2---2-----------7---|
|-2---2--------2---2------55553333--2---2------2---2-----------5---|
|-0-0-0-000000-0-0-000000-----------0-0-000000-0---0000h33---------|

 
|------------------------------------------------------------------|
|------------------------------------------------------------------|
|--------------------------------------------------------------7---|
|-2---2--------2---2----------------2---2------2---2-----------7---|
|-2---2--------2---2------55553333--2---2------2---2-----------5---|
|-0-0-0-000000-0-0-000000-----------0-0-000000-0---0000h33---------|

|-------------------------------------------------------------|
|-------------------------------------------------------------|
|--7-------8-7-------5-7----------------7-------8-7-------5-7-|
|--7-------8-7-------5-7----------------7-------8-7-------5-7-|
|----0-0-0-----0-0-0-----0-0-0-0-0-0-0----0-0-0-----0-0-0-----|
|-------------------------------------------------------------|


|------------------------|
|------------------------|
|-------1010101014141414-|
|-121212-----------------|
|------------------------|
|------------------------|


|-------------------------------------------------------------------|
|-------------------------------------------------------------------|
|--7-------8-7-------5-7----------------7-------8-7-------5---------|
|--7-------8-7-------5-7----------------7-------8-7-------5--2-2----|
|----0-0-0-----0-0-0-----0-0-0-0-0-0-0----0-0-0-----0-0-0----2-2----|
|------------------------------------------------------------0-0----|

 Riff 5
|-------------------------------------------------------------------|
|-------------------------------------------------------------------|
|-------------------------------------------------------------------|
|---------------------------------------------------------------5\4-|
|---2-6-5-3-5-4-3-2-------3---------2-6-5-3-5-4-3-2-----3/4-----3\2-|
|-0-0-4-3-1-3-2-1-0-00000-1-00000---0-4-3-1-3-2-1-0-0-0-1/2-0-0-----|


|--------------------------------------------------------------------|
|--------------------------------------------------------------------|
|--7--------9---------------------------------------------7--------9-|
|--7--------9-----------------------------------5\4-------7--------9-|
|--5--------7-------2-6-5-3-5-4-3-2-----3/4-----3\2-------5--------7-|
|-------------------0-4-3-1-3-2-1-0-0-0-1/2-0-0----------------------|


|--------------------------------------------------------------------|
|--------------------------------------------------------------------|
|-------------------------------------7--------9---------------------|
|-------------------------------------7--------9--------9--------8---|
|-----------------------------3\2-----5--------7--------9--------8---|
|-0-4-3-1-3-2-1-0-0-0-1/2-0-0---------------------------7--------6---|


 Solo 1
|----------------------------------------------|---------------------|
|----------------------------------------------|---------------------|
|----------???????????-------------------------|---------------------|
|----------???????????-------------------------|---------------------|
|----------------------------------------------|--2--3--4--5---7-----|
|----------------------------------------------|--000111222333-5-----|



|-------------------------------------------------------------|
|-------------------------------------------------------------|
|--7-------8-7-------5-7----------------7-------8-7-------5-7-|
|--7-------8-7-------5-7----------------7-------8-7-------5-7-|
|----0-0-0-----0-0-0-----0-0-0-0-0-0-0----0-0-0-----0-0-0-----|
|-------------------------------------------------------------|


|------------------------|
|------------------------|
|-------1010101014141414-|
|-121212-----------------|
|------------------------|
|------------------------|



|------------------------------------------------------------------------|
|------------------------------------------------------------------------|
|--7-------8-7-------5-7----------------7-------8-7-------5-7------------|
|--7-------8-7-------5-7----------------7-------8-7-------5-7------------|
|----0-0-0-----0-0-0-----0-0-0-0-0-0-0----0-0-0-----0-0-0-----2-3-4-5----|
|-------------------------------------------------------------0011223----|
 



 Riff 4





 Solo 2 (rhythm)

|------------------------------------------------------------------------------|
|------------------------------------------------------------------------------|
|--5------8---------5------------8--------7------10-----------7------------10--|
|--5------8----8----5------6-----8--------7------10----10-----7------8-----10--|
|--3------6----8----3------6-----6--------5------8-----10-----5------8-----8---|
|--------------6-----------4---------------------------8-------------6---------|


|-----------------------------------------------------------------------|
|-----------------------------------------------------------------------|
|--7-----5-----8-----5-----7-----5-----8-----5--------------------------|
|--7-----5-----8-----5-----7-----5-----8-----5--------------------------|
|--5-----3-----6-----3-----5-----3-----6-----3--------------------------|
|-----------------------------------------------------------------------|


|-----------------------------------------------------------------------|
|-----------------------------------------------------------------------|
|--7-------8-7-------5-7----------------7-------8-7-------5-7-----------|
|--7-------8-7-------5-7----------------7-------8-7-------5-7-----------|
|----0-0-0-----0-0-0-----0-0-0-0-0-0-0----0-0-0-----0-0-0-----2-3-4-5---|
|-------------------------------------------------------------0011223---|

|-------------------------------------------------------------|
|-------------------------------------------------------------|
|--7-------8-7-------5-7----------------7-------8-7-------5-7-|
|--7-------8-7-------5-7----------------7-------8-7-------5-7-|
|----0-0-0-----0-0-0-----0-0-0-0-0-0-0----0-0-0-----0-0-0-----|
|-------------------------------------------------------------|


|------------------------|
|------------------------|
|-------1010101014141414-|
|-121212-----------------|
|------------------------|
|------------------------|


|----------------------------------------------------------------------|
|----------------------------------------------------------------------|
|--7-------8-7-------5-7----------------7-------8-7-------5------------|
|--7-------8-7-------5-7----------------7-------8-7-------5--2-2-------|
|----0-0-0-----0-0-0-----0-0-0-0-0-0-0----0-0-0-----0-0-0----2-2-------|
|------------------------------------------------------------0-0-------|



 Riff 5

-----------------------------------------------------------------------------

3.Chokehold

Chokehold
(Cocked'N'Loaded - Children of Bodom
----------------------------------------------------------------------------
Tabbed by:Steven A.
Email:KsE495@aol.com

Tuning:DGCFAD
  Intro:
|--------------------------------------------------------------------------|
|--------------------------------------------------------------------------|
|--------------------------------------------------------------------------|
|--------------------------------------------------------------------------|
|--------------------------------------------------------------------------|
|--0-12-13-0-13-12-0-12-0-12-10-0-10-12-0-12-0-12-13-0-13-12-0-0-0-0-0-0-0-|
   . .  .  . .  .  . .  . .  .  . .  .  . .  . .  .  . .  .  . . . . . . .

|--------------------------------------------------------------------------|
|--------------------------------------------------------------------------|
|--------------------------------------------------------------------------|
|--------------------------------------------------------------------------|
|--------------------------------------------------------------------------|
|--0-12-13-0-13-12-0-12-0-12-10-0-10-12-0-12-0-12-13-0-13-12-0-0-0-0-0-0-0-|
   . .  .  . .  .  . .  . .  .  . .  .  . .  . .  .  . .  .  . . . . . . .

  Riff 1:Play it fast                                    4th time play this
|------------------------------------------------------|-------------------|
|---------------------------------------------------x4-|-------------p.h.--|
|------------------------------------------------------|-------------4~~~~-|
|------------------------------------------------------|-------------------|
|--0h4/5---5/4---4-4p0---0h4---------------------------|-------------------|
|--0h2/3-3-3/2-2-2-2p0-0-0h2-2-2-2-2-2-2-2-2-2-2-2-2-2-|2-2-2-2-2-2--------|
         .     .       .     . . . . . . . . . . . . .  . . . . . .
  Riff 2:
|----------------------------------------------------------------|
|----------------------------------------------------------------|
|----------------------------------------------------------------|
|----------------------------------------------------------------|
|----7h8---8p7---7---7p5---5h7---7---7h8---8p7-------------------|
|--0-----0-----0---0-----0-----0---0-----0-----0-0-0-0-0-0-0-0-0-|
   .     .     .   .     .     .   .     .     . . . . . . . . .
nd time:
|---------------------------------------------|
|---------------------------------------------|
|--------------
Добавлено: 31.07.2012
Другие материалы по этой песне:
  • Аккорды и текст

Страница создана 31.07.2012
http://primanota.ru/children-of-bodom/hate-crew-deathroll-album-chords.htm
Привет, Гость.
Предлагаем пройти революционный курс по гитаре.
Подарок от PrimaNota.Ru, забирай!