PrimaNota.ru - самый крупный в мире бесплатный архив песенных текстов, аккордов, табулатур и нот


Children Of Bodom - Hatebreeder (album) - таба, видео

Регистрация Запомнить меня
Войти через:  Facebook Google Twitter Vk Yandex Mail.ru

Children Of Bodom - Hatebreeder (album) - таба, видео

Печатать
Просмотров: 177
Уроки эстрадного вокала в Санкт-Петербурге
Children of Bodom 
Hatebreeder album
By Kevin Cruz (Kevin666)

WARNING: IF THERE'S ANY PROBLEMS READING THIS PAGE,
         CHECK THE TABS INDIVIDUALY. 

1.Warheart                  | Juha-Matti Kallinen
2.Silent night, Bodom Night | Juha-Matti Kallinen
3.Hatebreeder (ver 2)       | Funeralforafriend
4.Bed of razors (Ver 2)     | Juha-Matti Kallinen
5.Towards dead end          | Juha-Matti Kallinen
6.Black Widow               | SolidMetal
7.Wrath Within (Solo)       | death_50@hotmail.com
8.Children of Bodom         | Juha-Matti Kallinen
9.Downfall (Ver 2 & Solo)   | Kevin666

----------------------------------------------------
1. Warheart

Tune down one whole step

4/4 time, 180 bpm


|-------------|---------------|-------------|----------------|
|-------------|---------------|-------------|----------------|
|-------------|---------------|-------------|----------5---7-|
|-2-----------|---------5---0-|-2-----------|----------5---7-|
|-2-----------|---------5---0-|-2-----------|----------3---5-|
|-0-----------|---------3-----|-0-----------|----------------|


  16th-note trem.
|---------------|---------------|---------------|-----------------|
|-12------------|-12----15--13--|-12------------|-12---13---------|
|-------14--12--|---------------|-------14--12--|---------14------|
|---------------|---------------|---------------|-----------------|
|---------------|---------------|---------------|-----------------|
|---------------|---------------|---------------|-----------------|
|
|---------------|---------------|---------------|-----------------|
|---------------|---------------|---------------|-----------------|
|-9-----7-------|-9-----5-------|-9-----7-------|-12------7-------|
|-9-----7-------|-9-----5-------|-7-----7-------|-12------7-------|
|-7-----5-------|-7-----3-------|-7-----5-------|-10------5-------|
|---------------|---------------|---------------|-----------------|

|-------------|-------------|------------------|--------------|
|-------------|-------------|------------------|-----/x\------|
|-------------|-------------|-12p9--12p9--12p9-|-12-----------|
|-------------|-------------|------------------|--------------|
|-------------|-------------|------------------|--------------|
|-------------|-------------|------------------|--------------|
|
|-------------|-------------|------------------|--------------|
|-8-----------|-8-----------|-8----------------|-8------------|
|-9-----------|-8-----------|-9----------------|-8------------|
|-9-----------|-8-----------|-9----------------|-8------------|
|-7-----------|-6-----------|-7----------------|-6------------|
|-------------|-------------|------------------|--------------|

|---------------|---------------|---------------|-------------------|
|-12------------|-12----15--13--|-12------------|-12---13-----------|
|-------14--12--|---------------|-------14--12--|---------14--------|
|---------------|---------------|---------------|-------------------|
|---------------|---------------|---------------|-------------------|
|---------------|---------------|---------------|-------------------|
|
|---------------|---------------|---------------|-------------------|
|---------------|---------------|---------------|--------------7-10-|
|-9-----7-------|-9-----5-------|-9-----7-------|-------4----7------|
|-9-----7-------|-9-----5-------|-7-----7-------|-----5----7--------|
|-7-----5-------|-7-----3-------|-7-----5-------|---5---------------|
|---------------|---------------|---------------|-3-----------------|

                                                 big vibe w/bar
|-------------|-------------|------------------|--------------|
|-------------|-------------|------------------|-----/x\------|
|-------------|-------------|-12p9--12p9--12p9-|-12-----------|
|-------------|-------------|------------------|--------------|
|-------------|-------------|------------------|--------------|
|-------------|-------------|------------------|--------------|
|
|-------------|-------------|------------------|--------------|
|-8-----------|-8-----------|-8----------------|-8------------|
|-9-----------|-8-----------|-9----------------|-8------------|
|-9-----------|-8-----------|-9----------------|-8------------|
|-7-----------|-6-----------|-7----------------|-6------------|
|-------------|-------------|------------------|--------------|


|------------------|----------------|
|------------------|----------------|
|-9-----7-9-----12-|-9------10------|
|-9-----7-9-----12-|-9------10------|
|-7-----5-7-----10-|-7------8-------|
|---0-0-----0-0----|----------------|

Riff A
|-------------|-------------|-------------|------------------|
|-------------|-------------|-------------|------------------|
|-9-----------|-12----8-----|-9-----------|-14--11--8--------|
|-------------|-------------|-------------|-------------10---|
|-------------|-------------|-------------|------------------|
|-------------|-------------|-------------|------------------|
|
|-------------|-------------|-------------|------------------|
|-------------|-------------|-------------|------------------|
|-9-----------|-12----5-----|-9-----------|------------------|
|-9-----------|-12----5-----|-9-----------|-----7777---------|
|-7------7777-|-10----3-----|-7-----------|-9999----66669999-|
|-------------|-------------|-------------|------------------|


|-------------|-------------|-------------|-----------------|
|-------------|-------------|-------------|-----------------|
|-9-----------|-12----8-----|-9-----------|-9---8---12--11--|
|-------------|-------------|-------------|-----------------|
|-------------|-------------|-------------|-----------------|
|-------------|-------------|-------------|-----------------|
|
|-------------|-------------|-------------|-----------------|
|-------------|-------------|-------------|-----------------|
|-9-----------|-12----5-----|-9-----------|-----------------|
|-9-----------|-12----5-----|-9-----------|-----------------|
|-7------7777-|-10----3-----|-7-----------|-777-666---------|
|-------------|-------------|-------------|---------888-555-|


|-------------|-------------|----------------|----------------------|
|-------------|-------------|------------10--|-12--10h12p10---------|
|-9-----------|-12----7-----|-9--11--12------|--------------12--11--|
|-------------|-------------|----------------|----------------------|
|-------------|-------------|----------------|----------------------|
|-------------|-------------|----------------|----------------------|
|
|-------------|-------------|----------------|----------------------|
|-------------|-------------|----------------|----------------------|
|-9-----------|-12----7-----|-9--------------|-9------------12--7---|
|-9-----------|-12----7-----|-9--------------|-9---10-------12--7---|
|-7------7777-|-10----5-----|-7--------------|-7---10-------10--5---|
|-------------|-------------|----------------|-----8----------------|


|-------------|-------------|-------------|--------------|
|-------------|-------------|-------------|--------------|
|-9-----------|-12---7------|-------------|-9--8--12-11--|
|-------------|-------------|----7--9--10-|--------------|
|-------------|-------------|-10----------|--------------|
|-------------|-------------|-------------|--------------|
|
|-------------|-------------|-------------|--------------|
|-------------|-------------|-------------|--------------|
|-9-----------|-12----7-----|-------------|-9-----4------|
|-9-----------|-12----7-----|-----------7-|-9-----4------|
|-7------7777-|-10----5-----|-7--9--10----|-7-----2------|
|-------------|-------------|-------------|--------------|

Riff B
|----------------------|-------------------|----------------------|------------|
|----------------------|-------------------|----------------------|------------|
|-9----------8---------|-9---------8-------|-9---------8----------|-9----9--8--|
|-------11--------9----|------11-------9---|------11--------9-----|---11-------|
|----------------------|-------------------|----------------------|------------|
|----------------------|-------------------|----------------------|------------|
|
|----------------------|-------------------|----------------------|------------|
|----------------------|-------------------|----------------------|------------|
|-6--------------------|-----------4---4---|-6--------------------|-6-2-----4--|
|-6--------------------|-----------4---4---|-6--------------------|-6-2--2--4--|
|-4--44-4444-4444-4444-|-4444-4444-2---2---|-4--44-4444-4444-4444-|-4-0--2--2--|
|----------------------|-------------------|----------------------|------0-----|


|----------------------|-------------------|----------------------|------------|
|----------------------|-------------------|----------------------|------9-----|
|-9----------8---------|-9---------8-------|-9---------8----------|-9-------11-|
|-------11--------9----|------11-------9---|------11--------9-----|---11-------|
|----------------------|-------------------|----------------------|------------|
|----------------------|-------------------|----------------------|------------|
|
|----------------------|-------------------|----------------------|------------|
|----------------------|-------------------|----------------------|------------|
|-6--------------------|-----------4---4---|-6--------------------|-6-2-----4--|
|-6--------------------|-----------4---4---|-6--------------------|-6-2--2--4--|
|-4--44-4444-4444-4444-|-4444-4444-2---2---|-4--44-4444-4444-4444-|-4-0--2--2--|
|----------------------|-------------------|----------------------|------0-----|

 Riff C                                                 (3 guitars)
|------------------|-----------------|-----------------|--------------------|
|------------------|-----------------|-----------------|-11-----------------|
|*-11------10------|-11------10------|-11------10------|-11--11--13/10-10--*|
|*-----13------11--|-----13------11--|-----13------11--|-----13--------11--*|
|--666-666---------|-666-666---------|-666-666---------|-999-999-444---444--|
|----------666-666-|---------666-666-|---------666-666-|--------------------|


|------------------|
|------------------|
|-8--------2-------|
|-8--------2-------|
|-6--------0-------|
|------------------|


|-------------|-------------|-------------|------------------|
|-------------|-------------|-------------|------------------|
|-9-----------|-12----8-----|-9-----------|-14--11--8--------|
|-------------|-------------|-------------|-------------10---|
|-------------|-------------|-------------|------------------|
|-------------|-------------|-------------|------------------|
|
|-------------|-------------|-------------|------------------|
|-------------|-------------|-------------|------------------|
|-9-----------|-12----5-----|-9-----------|------------------|
|-9-----------|-12----5-----|-9-----------|---7-------7------|
|-7------7777-|-10----3-----|-7-----------|-9-----6-9---6-9--|
|-------------|-------------|-------------|-----8------------|


|-------------|-------------|-------------|---------------------|
|-------------|-------------|-------------|-13-12-10------------|
|-9-----------|-12----8-----|-9-----------|---------12-11-9-8-9-|
|-------------|-------------|-------------|---------------------|
|-------------|-------------|-------------|---------------------|
|-------------|-------------|-------------|---------------------|
|
|-------------|-------------|-------------|---------------------|
|-------------|-------------|-------------|---------------------|
|-9-----------|-12----5-----|-9-----------|---------------------|
|-9-----------|-12----5-----|-9-----------|---------------------|
|-7------7777-|-10----3-----|-7-----------|---------------------|
|-------------|-------------|-------------|-/x\-----------------|


|----------|---------------------|----------|-------------------------|
|----------|---------------------|----------|-14----14-17-16-------16-|
|-11-------|-14---13b(14)r13-----|-11-------|----14----------16-------|
|----------|------------------14-|----------|-------------------16----|
|----------|---------------------|----------|-------------------------|
|----------|---------------------|----------|-------------------------|
|
|----------|---------------------|----------|-------------------------|
|----------|---------------------|----------|-------------------------|
|----------|-2-------------------|----------|-2-----------4-----------|
|-4--------|-2------------2------|-4--------|-2--2--2--2--4--4--4--4--|
|-4--------|-0------------2------|-4--------|-0--0--0--0--2--2--2--2--|
|-2--------|--------------0------|-2--------|-------------------------|

 lead doubled a third below                        (kbrd effect)
|----------|---------------------|-19b(21)--------|----------------|
|-17-------|-21---19b(21)r19-----|----------------|----------------|
|----------|------------------18-|----------------|----------------|
|----------|---------------------|----------------|----------------|
|----------|---------------------|----------------|----------------|
|----------|---------------------|----------------|----------------|
|
|----------|---------------------|----------------|----------------|
|----------|---------------------|----------------|----------------|
|-6--------|-9-----------4-------|-6--------------|-6--------------|
|-6--------|-9-----------4-------|-6--------------|-6--------------|
|-4--------|-7-----------2-------|-4------444-444-|-4--------------|
|----------|---------------------|----------------|----------------|

                                               1.(3 guitars)
|---------------|--------------|--------------|--------------|
|---------------|--------------|--------------|-9------------|
|*-9-----8------|-9-----8------|-9-----8------|-9--9--11-8--*|
|*----11----9---|----11----9---|----11----9---|----11-13-9--*|
|---------------|--------------|--------------|--------------|
|---------------|--------------|--------------|--------------|
|
|---------------|--------------|--------------|--------------|
|---------------|--------------|--------------|--------------|
|*-6------------|-6------------|-6------------|-9-----4-----*|
|*-6-----6------|-6-----6------|-6-----6------|-9-----4-----*|
|--4-----6------|-4-----6------|-4-----6------|-7-----2------|
|--------4------|-------4------|-------4------|--------------|

  2.(leads as in first ending)
  rhythm part
|-------------|
|-------------|
|-9-----4--7--|
|-9-----4--7--|
|-7-----2--5--|
|-------------|

Riff D (6 bars)
   E5                D5                 B5                C5       D5
|-------------15-19-17p14------------|-------------10-14-15-14-12---------|
|----------17-------------15---------|----------12----------------15------|
|-------16-------------------14------|-------11---------------------------|
|----17------------------------------|----12------------------------------|
|-19---------------------------------|-14---------------------------------|
|------------------------------------|------------------------------------|

  E5                D5                 A5                C5       D5
|-------------15-19-17p14------------|-------------9--12-15-14-12---------|
|----------17-------------15---------|----------10----------------15------|
|-------16-------------------14------|-------9----------------------------|
|----17------------------------------|----11------------------------------|
|-19---------------------------------|-12---------------------------------|
|------------------------------------|------------------------------------|

E5                D5                 B5                C5       D5
|-------------15-19-17p14------------|-------------10-14-15-14-12---------|
|----------17-------------15---------|----------12----------------15------|
|-------16-------------------14------|-------11---------------------------|
|----17------------------------------|----12------------------------------|
|-19---------------------------------|-14---------------------------------|
|------------------------------------|------------------------------------|

  D5                F5
|-------------13-17-20--17-----------|---------------------------|
|----------15---------------17-------|---------------------------|
|-------14----------------------17---|----------5----------------|
|----15-------------3---3---3---3----|-3--2-----5----------------|
|-17----------------3---3---3---3----|-------5--3----------------|
|-------------------1---3---1---1----|---------------------------|


|-----------------|--------------------|--------------------|----------------|
|-----------------|--------------------|--------------------|----------------|
|*-7------7-------|-3----------5----7--|-------7--5-s7----5-|------3--------*|
|*-7------7-------|-3----------5----7--|-------7--5-s7----5-|------3--------*|
|--5--555-5-------|-1-------3--3----5--|----55-5--3-s5----3-|------1---------|
|-----------------|---------1----------|--------------------|----------------|


|---------------------|---------------------|
|---------------------|---------------------|
|---------------------|---------------------|
|---------------------|---------------------|
|----5-55-5---5-55-5--|----5-55-5---5-55-5--|
|---------------------|---------------------|

Solo
  E5                                    D5        bar dive and raise
|-----------------|----------12----12-|-14--------14a26--|------------12\-|
|-----------------|-10s12-------------|------------------|----------------|
|-9---------------|-------------------|------------------|----------------|
|-----------------|-------------------|------------------|----------------|
|-----------------|-------------------|------------------|----------------|
|-----------------|-------------------|------------------|----------------|

  C5                                    A5
|-14--15p14p12----12--14---15---17---|-19-----gb(19)r17--/20----20-|
|--------------15--------------------|-----------------------------|
|------------------------------------|-----------------------------|
|------------------------------------|-----------------------------|
|------------------------------------|-----------------------------|
|------------------------------------|-----------------------------|

  B5
|-19-17-15----------------------------------------|
|----------19-17-16-17-19-17-15-------------------|
|-------------------------------16-17-16-14-------|
|-------------------------------------------17-16-|
|-------------------------------------------------|
|-------------------------------------------------|


|-------------------------------------------------|
|-------------15----------------------------------|
|----14-16-17----17-16-14-------------------------|
|-17----------------------17-16-14----------------|
|----------------------------------17-15-13-------|
|-------------------------------------------17-15-|

  E5
|-------------------------------------------------|
|-------------------------------------------------|
|----------------------16-21p16----------------14-|
|-------------------17----------17----------17----|
|-------------14h19----------------19-14h19-------|
|-0--h12-h15--------------------------------------|

                                       D5(/F#) (doubled a third higher)
|------------------------------------|----------------------------|
|------------------------------------|----------------------------|
|-17-16-17-19-17-19-19b(21)--19b(21)-|---\------------------------|
|------------------------------------|-------------------------9--|
|------------------------------------|--------------9--10--12-----|
|------------------------------------|----------------------------|

                             C5(/G)
|--------------------------|-------------------------12--14--15--|
|----------------10-12-13--|-12h13p12----12--13--15--------------|
|-------9--11-12-----------|----------14-------------------------|
|-10-12--------------------|-------------------------------------|
|--------------------------|-------------------------------------|
|--------------------------|-------------------------------------|

  A5                                    B5 bar dives
|-17-15-14----------19-17-15----------|---------------|--------------|
|----------17-15-13----------19-17-15-|-a16------0----|--a16---------|
|-------------------------------------|---------------|--------------|
|-------------------------------------|---------------|--------------|
|-------------------------------------|---------------|--------------|
|-------------------------------------|---------------|--------------|

  E5    w/bar fluttering
|-/19----22-/19----22--|-/19------------------22b(24)-------|
|----------------------|-------22b(24)r22-20----------------|
|----------------------|---------------------------------16-|
|----------------------|------------------------------------|
|----------------------|------------------------------------|
|----------------------|------------------------------------|

  G5
|------------------------------------------------|
|------------------------------------------------|
|-19p16----------16-19p16----------16-19-p16-----|
|-------17p16-17----------17p16-17------------17-|
|------------------------------------------------|
|------------------------------------------------|

  B5         E5         B/D#       /F#
|-----------------------14h17p14---19\---|
|-16h19p16---17h20p17--------------------|
|----------------------------------------|
|----------------------------------------|
|----------------------------------------|
|----------------------------------------|

  E5
|-15-12-14-15-17-14-15-17-19-15-17-19-20-19-17----|
|----------------------------------------------20-|
|-------------------------------------------------|
|-------------------------------------------------|
|-------------------------------------------------|
|-------------------------------------------------|


|-------19-17-------------------------------------|
|-19-17-------20-19-17----------------------------|
|----------------------19-17-16-------------------|
|-------------------------------19-17-16----------|
|----------------------------------------19-17-15-|
|-------------------------------------------------|

  Bb5
|----------------------------------------------15-|
|-------------------------------------15-17-18----|
|----------------------------14-15-17-------------|
|----------14-15-17-14-15-17----------------------|
|-13-15-17----------------------------------------|
|-------------------------------------------------|


|----------/18\------/22\---|(-/24\)
|-18\-----------------------|
|---------------------------|
|---------------------------|
|---------------------------|
|---------------------------|


|-------------|---------------|-------------|----------------|
|-------------|---------------|-------------|----------------|
|-------------|---------------|-------------|----------7---7-|
|-2-----------|---------5---0-|-2-----------|----------7---7-|
|-2-----------|---------5---0-|-2-----------|----------5---5-|
|-0-----------|---------3-----|-0-----------|----------------|


Riff A (repeat 1st verse)

Riff B

Riff C (play 5th chords instead of muted triplets)


|-------------|-------------|
|-------------|-------------|
|-8-----------|-------5--7--|
|-8-----------|-------5--7--|
|-6-----------|-------3--5--|
|-------------|-------------|

Riff D

D5                F5
|-------------13-17-20--17-----------|-15b(17)r15-------------|------|------|
|----------15---------------17-------|-------------18-17------|------|------|
|-------14----------------------17---|----------------5-------|------|------|
|----15-------------3---3---3---3----|-3--2-----------5-------|------|------|
|-17----------------3---3---3---3----|-------------5--3-------|------|------|
|-------------------1---3---1---1----|------------------------|------|------|



|-----------------|--------------------|--------------------|---------------|
|-----------------|--------------------|--------------------|---------------|
|*-7------7-------|-3----------5----7--|-------7--5-s7----5-|------3-------*|
|*-7------7-------|-3----------5----7--|-------7--5-s7----5-|------3-------*|
|--5--555-5-------|-1-------3--3----5--|----55-5--3-s5----3-|------1--------|
|-----------------|---------1----------|--------------------|---------------|

                                                              1.
|-----------------|--------------------|--------------------|---------------|
|-----------------|--------------------|--------------------|---------------|
|*----------------|--------------------|--------------------|---------------|
|*-5--------------|-2------2--4----5---|-------5--4-s5----4-|--5-4-2--------|
|-----------------|--------------------|--------------------|---------------|
|-----------------|--------------------|--------------------|---------------|

|-----------------|--------------------|--------------------|---------------|
|-----------------|--------------------|--------------------|---------------|
|*-9------9-------|-5----------7----9--|-------9--7-s9----7-|------5-------*|
|*-9------9-------|-5----------7----9--|-------9--7-s9----7-|------5-------*|
|--7--777-7-------|-3-------5--5----7--|----77-7--5-s7----5-|------3--------|
|-----------------|---------3----------|--------------------|---------------|

  2.
|-----------------|-----------------|-------------------|
|-----------------|-----------------|-------------------|
|-----------------|-----------------|-------------------|
|---5-4-2---4-5-4-|---5-4-2---4-5-2-|-------------------|
|-----------------|-----------------|-------------------|
|-----------------|-----------------|---0-00-0---0-00-0-|
|
|-----------------|-----------------|-------------------|
|-----------------|-----------------|-------------------|
|-------5-------7-|-------5---------|-------------------|
|-------5-------7-|-------5---------|-------------------|
|-------3-------5-|-------3---------|-------------------|
|-----------------|---------------0-|---0-00-0---0-00-0-|

-------------------------------------------------------------

2. Silent Night, Bodom Night

Tune down one whole step

4/4 time, 215 bpm
Triplet feel

  Riff A (2 guitars, 8 bars)
|-----------------|-----------------|-----------------|-----------------|
|-----------------|-----------------|-----------------|-----------------|
|-----------------|-----------------|-----------------|-----------------|
|-222-222-222-222-|-2-------5---4---|-5---2---4-------|-2---------------|
|-----------------|-----2-----------|-------------5---|-----------------|
|-----------------|-----------------|-----------------|-----------------|
|
|-----------------|-----------------|-----------------|-----------------|
|-----------------|-----------------|-----------------|-----------------|
|-----------------|-----------------|-----------------|-----------------|
|-----------------|---------12--11--|-9-------7-------|-9---------------|
|-777-777-777-777-|-777-777-10--9---|-7-------5-------|-7---------------|
|-----------------|-----------------|-----------------|-----------------|


|-----------------|-----------------|------------------------|--------------|
|-----------------|-----------------|-10b(12)r10----8--------|--------------|
|-----------------|---------9--11---|-------------------11---|-9------------|
|-222-222-222-222-|-2---9-----------|------------------------|--------------|
|-----------------|-----------------|------------------------|--------------|
|-----------------|-----------------|------------------------|--------------|
|
|-----------------|-----------------|------------------------|--------------|
|-----------------|-----------------|------------------------|--------------|
|-----------------|-----------------|------------------------|--------------|
|-----------------|---------9---7---|------------------------|-9------------|
|-777-777-777-777-|-777-777-7---5---|-3------------------5---|-7------------|
|-----------------|-----------------|----------3-----7-------|--------------|

   (2 lead guitars)                      (in unison)             (in voices)
|--3-0-0-0-0-0-5-0-0-0-0-0-|-7-0-0-0-0-0-----------|-------------|-------0-|
|--5-0-0-0-0-0-7-0-0-0-0-0-|-8-0-0-0-0-0-7----10---|-8-----7-----|-8-----0-|
|*-------------------------|-----------------------|----9-----7--|-9-------|
|*-------------------------|-----------------------|-------------|---------|
|--------------------------|-----------------------|-------------|---------|
|--------------------------|-----------------------|-------------|---------|
|
|--------------------------|-----------------------|-------------|---------|
|--------------------------|-----------------------|-------------|---------|
|*-------------------------|-----------------------|-------------|---------|
|*-------------------------|-------------12---11---|-9-----7-----|-9-------|
|--7-7-7-7-7-7-7-7-7-7-7-7-|-7-7-7-7-7-7-10---9----|-7-----5-----|-7-------|
|--------------------------|-----------------------|-------------|---------|

                                                    1.
|-3-0-0-0-0-0-5-0-0-0-0-0-|-7-0-0-0-0-0-----------|----------10-|-10b(12)~0-|
|-5-0-0-0-0-0-7-0-0-0-0-0-|-8-0-0-0-0-0-7----10---|-8-----7-----|---------0-|
|-------------------------|-----------------------|----9-----7--|-9--------*|
|-------------------------|-----------------------|-------------|----------*|
|-------------------------|-----------------------|-------------|-----------|
|-------------------------|-----------------------|-------------|-----------|
|
|-------------------------|-----------------------|-------------|-----------|
|-------------------------|-----------------------|-------------|-----------|
|-------------------------|-----------------------|-------------|----------*|
|-------------------------|-------------9----7----|-5-----7-----|-9--------*|
|-7-7-7-7-7-7-7-7-7-7-7-7-|-7-7-7-7-7-7-7----5----|-3-----5-----|-7---------|
|-------------------------|-----------------------|-------------|-----------|

  2.
|----------/15-|-12~--------|
|-8-----7------|------------|
|----9------7--|-9----------|
|--------------|------------|
|--------------|------------|
|--------------|------------|
|
|--------------|------------|
|--------------|------------|
|--------------|------------|
|-5-----7------|-9----------|
|-3-----5------|-7----------|
|--------------|------------|

Verse
Riff A 1 1/2 times (=12 bars)


|-----------------|-----------------|-------------|------------|
|-----------------|-----------------|-------------|------------|
|-----------------|-----------------|-------------|------------|
|-----------------|-----------------|-2--2--2--2--|-2--2-------|
|-777-777-777-777-|-777-777-777-777-|-2--2--2--2--|-2--2-------|
|-----------------|-----------------|-0--0--0--0--|-0--0-------|


|--------------|---------------------|-------------|-------------|
|--------------|---------------------|-------------|-------------|
|--------------|---------------------|-------------|-------------|
|--------------|---------------------|-------------|-------------|
|-10-----------|-10---9b(10)r9---7---|-6-----------|----6--7--9--|
|--------------|---------------------|-------------|-7-----------|
|
|--------------|---------------------|-------------|-------------|
|--------------|---------------------|-------------|-------------|
|--------------|---------------------|-------------|-------------|
|--------------|---------------------|-------------|-------------|
|-7------------|-7--------9-------7--|-6-----------|-------------|
|--------------|---------------------|-------------|-7-----------|


|---------------|---------------------|-------------|-------------------|
|---------------|---------------------|----------7--|-7b(8)r7-----------|
|---------------|---------------------|----7--9-----|-----------9---7---|
|---------------|---------------------|-9-----------|-------------------|
|-10------10-10-|-10---9b(10)r9---7---|-------------|-------------------|
|---------------|---------------------|-------------|-------------------|
|
|---------------|---------------------|-------------|-------------------|
|---------------|---------------------|-------------|-------------------|
|---------------|---------------------|-------------|-------------------|
|---------------|-5--------7-------5--|-4-----------|-4-----4---4---4---|
|-7-------------|---------------------|-------------|-2-----2---2---2---|
|---------------|---------------------|-------------|-------------------|

Riff B (2 guitars, 16 bars)
|-----------------|--------------------|-----------------|-----------------|
|-----------------|--------------------|-----------------|-----------------|
|-----------------|--------------------|-----------------|-----------------|
|-5---5---4-----4-|----4---4-----------|-----------------|-----------------|
|-------------7---|------------7---5-7-|-----7-7-7---7-7-|-7---7-7-7-7-7-7-|
|-----------------|--------------------|-----------------|-----------------|
|
|-----------------|--------------------|-----------------|-----------------|
|-----------------|--------------------|-----------------|-----------------|
|---------5-------|--------7-----------|-----------------|-----------------|
|-----5---5-------|----7---7-----------|-----------------|-----------------|
|-3-------3-----5-|--------5-------5-7-|-----7-7-7---7-7-|-7---7-7-7-7-7-7-|
|-----------------|--------------------|-----------------|-----------------|


|-----------------|-----------------|------------7----8-|-7-----------------|
|-----------------|-----------------|---8-7-10-8---10---|---8-10-7---8------|
|---------7-----7-|---------------9-|-------------------|----------9---11-7-|
|-9-----------9---|-----------------|-------------------|-------------------|
|-----------------|-----------------|-------------------|-------------------|
|-----------------|-----------------|-------------------|-------------------|
|
|-----------------|-----------------|-------------------|-------------------|
|-----------------|-----------------|-------------------|-------------------|
|---------5-------|-----7-----------|-------------------|-------------------|
|-----5---5-------|-7---7-----------|-------------------|-------------------|
|-3-------3-----5-|-----5-------5-7-|-----7-7--7---7--7-|-7---7--7-7-7-7--7-|
|-----------------|-----------------|-------------------|-------------------|


|-----------------|--------------------|-----------------|-----------------|
|-----------------|--------------------|-----------------|-----------------|
|-----------------|--------------------|-----------------|-----------------|
|-5---5---4-----4-|----4---4-----------|-----------------|-----------------|
|-------------7---|------------7---5-7-|-----7-7-7---7-7-|-7---7-7-7-7-7-7-|
|-----------------|--------------------|-----------------|-----------------|
|
|-----------------|--------------------|-----------------|-----------------|
|-----------------|--------------------|-----------------|-----------------|
|---------5-------|--------7-----------|-----------------|-----------------|
|-----5---5-------|----7---7-----------|-----------------|-----------------|
|-3-------3-----5-|--------5-------5-7-|-----7-7-7---7-7-|-7---7-7-7-7-7-7-|
|-----------------|--------------------|-----------------|-----------------|


|------------------------|-----14--15--17--|-17b(19)---17~------|----------|
|-15b(17)r15---13---15---|-17--------------|--------------------|----------|
|------------------------|-----------------|--------------------|----------|
|------------------------|-----------------|--------------------|----------|
|------------------------|-----------------|--------------------|----------|
|------------------------|-----------------|--------------------|----------|
|
|------------------------|-----------------|--------------------|----------|
|------------------------|-----------------|--------------------|----------|
|-9-------------5--------|-----------------|------------7-------|----------|
|-9-------------5--------|-----------------|-5----------7-------|----------|
|-7-------------3--------|-----------------|-5----------5-------|----------|
|------------------------|-----------------|-3------------------|----------|

  E5
|-15-0-0-0-0-0-17-0-0-0-0-0-|-19-0-0-0-0-0-15-0-0-0-0-0-|
|---------------------------|---------------------------|
|---------------------------|---------------------------|
|---------------------------|---------------------------|
|---------------------------|---------------------------|
|---------------------------|---------------------------|

  E5                D5                  E5
|----15-19p15-------------14-17p14-17-|-15--------------------0---|
|-17----------17-------15-------------|---------------------------|
|----------------16-14----------------|---------------------------|
|-------------------------------------|---------------------------|
|-------------------------------------|---------------------------|
|-------------------------------------|---------------------------|

E5
|-15-0-0-0-0-0-17-0-0-0-0-0-|-19-0-0-0-0-0-15-0-0-0-0-0-|
|---------------------------|---------------------------|
|---------------------------|---------------------------|
|---------------------------|---------------------------|
|---------------------------|---------------------------|
|---------------------------|---------------------------|

  C5                D5                  E5
|----12-15p12-------------14-17p14-17-|-15--------------------0---|
|-13----------13-------15-------------|---------------------------|
|----------------12-14----------------|---------------------------|
|-------------------------------------|---------------------------|
|-------------------------------------|---------------------------|
|-------------------------------------|---------------------------|

E5                                         G5     D/F#
|-15-0-0-0-0-0-17-0-0-0-0-0-|-19-0-0-0-0-0-15-----------|
|---------------------------|---------------------17----|
|---------------------------|---------------------------|
|---------------------------|---------------------------|
|---------------------------|---------------------------|
|---------------------------|---------------------------|

  E5                D5                  E5
|----------17----17-19-17-19-17-------|-----------------------0---|
|-20-19-20----20----------------20-19-|-20------------------------|
|-------------------------------------|---------------------------|
|-------------------------------------|---------------------------|
|-------------------------------------|---------------------------|
|-------------------------------------|---------------------------|

E5                                         E5     D5
|-15-0-0-0-0-0-17-0-0-0-0-0-|-19-0-0-0-0-0-15-----------|
|---------------------------|---------------------19----|
|---------------------------|---------------------------|
|---------------------------|---------------------------|
|---------------------------|---------------------------|
|---------------------------|---------------------------|

E5                D5                  E5
|----------17-19-21----------19-20-22-|-22b(24)-------------/14---|
|-17-19-20----------19-20-22----------|---------------------------|
|-------------------------------------|---------------------------|
|-------------------------------------|---------------------------|
|-------------------------------------|---------------------------|
|-------------------------------------|---------------------------|

  F#5                                                     A5     E/G#
|-17-14-14-14-14-14-19-14-14-14-14-14-|-21-14-14-14-14-14-17-----16-----|
|-------------------------------------|---------------------------------|
|-------------------------------------|---------------------------------|
|-------------------------------------|---------------------------------|
|-------------------------------------|---------------------------------|
|-------------------------------------|---------------------------------|

  F#5               E5                  F#5
|----17-21p17-------------16-19p16-19-|-17--------------------14--|
|-19----------19-------17-------------|---------------------------|
|----------------18-16----------------|---------------------------|
|-------------------------------------|---------------------------|
|-------------------------------------|---------------------------|
|-------------------------------------|---------------------------|

F#5                                                     A5     G#5
|-17-14-14-14-14-14-19-14-14-14-14-14-|-21-14-14-14-14-14-17-14--16-----|
|-------------------------------------|---------------------------------|
|-------------------------------------|---------------------------------|
|-------------------------------------|---------------------------------|
|-------------------------------------|---------------------------------|
|-------------------------------------|---------------------------------|

  D5                E5                  F#5
|----14-17p14-------------16-19p16-19-|-17--------------------0---|
|-15----------15-------17-------------|---------------------------|
|----------------14-16----------------|---------------------------|
|-------------------------------------|---------------------------|
|-------------------------------------|---------------------------|
|-------------------------------------|---------------------------|

  E5                                       G5     F#5
|-15-0-0-0-0-0-17-0-0-0-0-0-|-19-0-0-0-0-0-15-0-0-0-0-0-|
|---------------------------|---------------------------|
|---------------------------|---------------------------|
|---------------------------|---------------------------|
|---------------------------|---------------------------|
|---------------------------|---------------------------|

  E5                D5                  E5
|----15-19p15-------------14-17p14-17-|-15--------------------0---|
|-17----------17-------15-------------|---------------------------|
|----------------16-14----------------|---------------------------|
|-------------------------------------|---------------------------|
|-------------------------------------|---------------------------|
|-------------------------------------|---------------------------|

  E5
|-15-0-0-0-0-0-17-0-0-0-0-0-|-19-0-0-0-0-0-15-0-0-0-0-0-|
|---------------------------|---------------------------|
|---------------------------|---------------------------|
|---------------------------|---------------------------|
|---------------------------|---------------------------|
|---------------------------|---------------------------|

                                        C5
|-20-19-17----------19-17-15----------|---------------------------|
|----------20-19-17----------19-17-15-|-17~-----------------------|
|-------------------------------------|---------------------------|
|-------------------------------------|---------------------------|
|-------------------------------------|---------------------------|
|-------------------------------------|---------------------------|


Riff A lead 1 3/4 times (14 bars), rhythm 2 times
  Lead
  C5            D5          E5
|--------------------10---|-10b(12)~--------------|
|-10b(12)r10----8---------|-----------------------|
|-------------------------|-----------------------|
|-------------------------|-----------------------|
|-------------------------|-----------------------|
|-------------------------|-----------------------|


|--------|--------|--------|--------|--------|--------|--------|--------|
|--------|--------|--------|--------|--------|--------|--------|--------|
|--------|--------|--------|--------|--------|--------|-5------|--------|
|-2------|--------|-2------|--------|-2------|--------|-5------|--------|
|-2------|--------|-2------|--------|-2------|--------|-3---/X-|---X\---|
|-0------|--------|-0------|--------|-0------|--------|-----/X-|---X\---|


|-----------------|-----------------|-----------------|-----------------|
|-----------------|-----------------|-----------------|-----------------|
|-----------------|-----------------|-----------------|-----------------|
|-----------------|-----------------|-----------------|-----------------|
|-2---------------|-----------------|-2---------------|-------------3---|
|-0---0-0-0---0-0-|-0---0-0-0-0-0-0-|-0---0-0-0---0-0-|-0---0-0-0-0-1---|


|-----------------|-----------------|-----------------|-----------------|
|-----------------|-----------------|-----------------|-----------------|
|-----------------|-----------------|-5---------------|-----------------|
|-----------------|-----------------|-5---------------|-----------------|
|-2---------------|-----/5------/4--|-3-----------/X--|--------X\-------|
|-0---0-0-0---0-0-|-0-0-/3--0-0-/2--|-------------/X--|--------X\-------|


|-----------------|-----------------|-----------------|-----------------|
|-----------------|-----------------|-----------------|-----------------|
|-----------------|-----------------|-----------------|-----------------|
|-----------------|-----------------|-----------------|-----------------|
|-2---------------|-----------------|-2---------------|-------------3---|
|-0---0-0-0---0-0-|-0---0-0-0-0-0-0-|-0---0-0-0---0-0-|-0---0-0-0-0-1---|

                                                       (lead on right)
|-----------------|-----------------|-----------------|-----------------|
|-----------------|-----------------|-----------------|-----------------|
|-2---------------|-4---------------|-5---------------|-7---------------|
|-2---------------|-4---------------|-5---------------|-7/4-------------|
|-0---------------|-2---------------|-3---------------|-5---------------|
|-----------------|-----------------|-----------------|-----------------|


|-------------19----17----|-------------19-17-------|
|-17-19-20-17----20----19-|-17-19-20-17-------20-19-|
|-------------------------|-------------------------|
|-------------------------|-------------------------|
|-------------------------|-------------------------|
|-------------------------|-------------------------|
|
|-------------------------|-------------------------|
|-------------------------|-------------------------|
|-------------------------|-------------------------|
|-9-----------------------|-------------7-----7-----|
|-7-----7--7--7--7--7--7--|-7--7--7--7--5-----5-----|
|-------------------------|-------------------------|


|-------------19----17----|-------------------------|
|-17-19-20-17----20----19-|-20-19-17-16-17~---------|
|-------------------------|-------------------------|
|-------------------------|-------------------------|
|-------------------------|-------------------------|
|-------------------------|-------------------------|
|
|-------------------------|-------------------------|
|-------------------------|-------------------------|
|-------------------------|-------------------------|
|-9-----------------------|-5-----7-----9-----------|
|-7-----7--7--7--7--7--7--|-3-----5-----7-----------|
|-------------------------|-------------------------|


|-------------19----17----|-------------19-17-------|
|-17-19-20-17----20----19-|-17-19-20-17-------20-19-|
|-------------------------|-------------------------|
|-------------------------|-------------------------|
|-------------------------|-------------------------|
|-------------------------|-------------------------|
|
|-------------------------|-------------------------|
|-------------------------|-------------------------|
|-------------------------|-------------------------|
|-9-----------------------|-------------7-----7-----|
|-7-----7--7--7--7--7--7--|-7--7--7--7--5-----5-----|
|-------------------------|-------------------------|


|-------------19----17----|-------------------------|
|-17-19-20-17----20----19-|----20-19-20-17-20-15-17-|
|-------------------------|-17----------------------|
|-------------------------|-------------------------|
|-------------------------|-------------------------|
|-------------------------|-------------------------|
|
|-------------------------|-------------------------|
|-------------------------|-------------------------|
|-------------------------|-5-----------------------|
|-9-----------------------|-5-----------------------|
|-7-----7--7--7--7--7--7--|-3-----------------------|
|-------------------------|-------------------------|


|-------------------------------------|----------17-19-20----------19-20-22-|
|-------------------------------------|-17-19-20----------19-20-22----------|
|----------------------------16-17-19-|-------------------------------------|
|-------------------16-17-19----------|-------------------------------------|
|----------12-14-15-------------------|-------------------------------------|
|-12-14-15----------------------------|-------------------------------------|
|
|-------------------------------------|-------------------------------------|
|-------------------------------------|-------------------------------------|
|-9------------------7----------------|-9------------------7----------------|
|-9------------------7----------------|-9------------------7----------------|
|-7------------------5----------------|-7------------------5----------------|
|-------------------------------------|-------------------------------------|


|-22b(24)-----------------------|----------r22--19----------24-|
|-------------------------------|------------------------------|
|-------------------------------|------------------------------|
|-------------------------------|------------------------------|
|-------------------------------|------------------------------|
|-------------------------------|------------------------------|
|
|-------------------------------|------------------------------|
|-------------------------------|------------------------------|
|-5-----------------------------|------------------------------|
|-5-----------------------------|---------------------------9--|
|-3-----------------------------|---------------------------7--|
|-------------------------------|------------------------------|

  E5
|----24--24p22s19---22--22--22p19s17--|-19--19--19p17s15---17--17-17p15s14--|
|-------------------------------------|-------------------------------------|
|-------------------------------------|-------------------------------------|
|-------------------------------------|-------------------------------------|
|-------------------------------------|-------------------------------------|
|-------------------------------------|-------------------------------------|

                                                     D5
|-15--15--15p14s12---14---14---14---12--|------------------------------------
|---------------------------------------|-15--b(17)--r15----------------/17--
|---------------------------------------|------------------------------------
|---------------------------------------|------------------------------------
|---------------------------------------|------------------------------------
|---------------------------------------|------------------------------------

  C5                                 D5
|-19--17--15----------17--15-------|-17---15---------------------17-19-20-|
|-------------17--19----------17---|----------19---15---17-19-20----------|
|----------------------------------|--------------------------------------|
|----------------------------------|--------------------------------------|
|----------------------------------|--------------------------------------|
|----------------------------------|--------------------------------------|

  E5                                 B5              drop w/bar
|-22--20--19----------20--19-------|--------------------------------------|
|-------------20--22----------20---|-22b(24)---------\/--\/---------------|
|----------------------------------|--------------------------------------|
|----------------------------------|--------------------------------------|
|----------------------------------|--------------------------------------|
|----------------------------------|--------------------------------------|

  C5                                    D5
|-15-12-14-15-14-12-17-14-15-17-15-14-|-19-17-15-------------------17-19-20-|
|-------------------------------------|----------19-17-15/17-19-20----------|
|-------------------------------------|-------------------------------------|
|-------------------------------------|-------------------------------------|
|-------------------------------------|-------------------------------------|
|-------------------------------------|-------------------------------------|

  E5                                    B5
|-22-19-20-22-20-19-24-20-22-24-22-20-|-24b(27)----------24b(27)------------|
|-------------------------------------|-------------------------------------|
|-------------------------------------|-------------------------------------|
|-------------------------------------|-------------------------------------|
|-------------------------------------|-------------------------------------|
|-------------------------------------|-------------------------------------|

  C5
|--------------------------|----------------------------|
|-17-----------------17----|-17------19------17h19p17---|
|--------------------------|----------------------------|
|--------------------------|----------------------------|
|--------------------------|----------------------------|
|--------------------------|----------------------------|

  B5
|---------------20--19--17------|-19--17----------17--------------|
|-16------------------------20--|---------20--19------20--19--17--|
|-------------------------------|---------------------------------|
|-------------------------------|---------------------------------|
|-------------------------------|---------------------------------|
|-------------------------------|---------------------------------|

  C5
|-------------------------------|----------------------------------|
|-\13-------------------13--15--|-17------15a(27)b(29)r(27)--------|
|-------------------------------|-----------------------------17---|
|-------------------------------|----------------------------------|
|-------------------------------|----------------------------------|
|-------------------------------|----------------------------------|

  B5
|----------------14---|-14b(15)-r14-------------|
|------15---17--------|---------------17---15---|-(13\)-
|-16------------------|-------------------------|
|---------------------|-------------------------|
|---------------------|-------------------------|
|---------------------|-------------------------|


Riff B


|-------------------------------------|----------17-19-20----------19-20-22-|
|-------------------------------------|-17-19-20----------19-20-22----------|
|----------------------------16-17-19-|-------------------------------------|
|-------------------16-17-19----------|-------------------------------------|
|----------12-14-15-------------------|-------------------------------------|
|-12-14-15----------------------------|-------------------------------------|
|
|-------------------------------------|-------------------------------------|
|-------------------------------------|-------------------------------------|
|-9------------------7----------------|-9------------------7----------------|
|-9------------------7----------------|-9------------------7----------------|
|-7------------------5----------------|-7------------------5----------------|
|-------------------------------------|-------------------------------------|


|-24-----------------24----19---------|-------------------------------------|
|-------------------------------20----|-17~---------------------------------|
|-------------------------------------|-------------------------------------|
|-------------------------------------|-------------------------------------|
|-------------------------------------|-------------------------------------|
|-------------------------------------|-------------------------------------|
|
|-------------------------------------|-------------------------------------|
|-------------------------------------|-------------------------------------|
|-9-----------------------------------|-------------------------------------|
|-9-------------------2-----2----2----|-2-----------------------------------|
|-7-------------------2-----2----2----|-2-----------------------------------|
|---------------------0-----0----0----|-0-----------------------------------|

-----------------------------------------------------------------------------

3.Hatebreeder 

Hatebreeder Tab by Children Of Bodom, www.Ultimate-Guitar.Com

|-------------------------------------------------------------------------------------------|Gtr1
|-------------------------------------------------------------------------------------------|
|-------------------------------------------------------------------------------------------|
|---------------------3-----------------------------------------------4---------------5-4-2-|
|-2-----2-----2-----5-2-0-2-----2-----2-----5-5-5-2-----2-----2-----5-2-0-2-----2-----5-4-2-|
|-0-000-0-000-0-000-3---0-0-000-0-000-0-000-3-3-3-0-000-0-000-0-000-3---0-0-000-0-000-3-2-0-|
|   ...   ...   ...         ...   ...   ...         ...   ...   ...         ...   ...
|
|
|-------------------------------------------------------------------------------------------|Gtr2
|-------------------------------------------------------------------------------------------|
|-------------------------------------------------------------------------------------------|
|---------------------4-----------------------------------------------3---------------5-4-2-|
|-------------------5-2-0-2-----------------5-5-5-2-----------------5-2-0-2-----------5-4-2-|
|-------------------3---0-0-----------------3-3-3-0-----------------3---0-0-----------3-2-0-|



Riff B
|-------------------------------------------------------------------------------------
|-------------------------------------------------------------------------------------
|-------------------12-12-------------------------------------------12----------------
|-9-----9-----9-----12-12-9-----9-------------444-9-----9-----9-----12----------------
|-7-777-7-777-7-777-10-10-7-777-7-999222222555----7-777-7-777-7-777-10--7-7-7-10-10-10
|-------------------------------------------------------------------------------------
|   ...   ...   ...         ...   ...............   ...   ...   ...     . . . .  .  . 
|
|
|-------------------------------------------------------------------------------------
|-------------------------------------------------------------------------------------
|-------------------12-12-------------------------------------------12----------------
|-9-----9-----9-----12-12-9-----9-----------------9-----9-----9-----12----------------
|-7-777-7-777-7-777-10-10-7-777-7-999222222222222-7-777-7-777-7-777-10--7-7-7-10-10-10
|-------------------------------------------------------------------------------------
    ...   ...   ...         ...   ...............   ...   ...   ...     . . . .  .  . 

------------------------------|Gtr1
------------------------------|    
-------------5-5-5-8-8-8-9ph~-|    
-6-6-6-9-9-9------------------|    
------------------------------|    
------------------------------|    
 . . . . . . . . . . . .           
                                   
                                   
------------------------------|Gtr2
------------------------------|    
-------------5-5-5-8-8-8-9ph~-|    
-6-6-6-9-9-9------------------|    
------------------------------|    
------------------------------|    
 . . . . . . . . . . . .           


Riff C
|-------------14-15-14-15-------------14-17-14-17-----------------------|Gtr1
|----------13----------------------15-----------------------------------|
|-------12----------------------14--------------------------------------|
|-10-14-------------------12-16-------------------9------9-8-9------9-8-|
|-------------------------------------------------7-7777-7-6-7-7777-7-6-|
|-----------------------------------------------------------------------|
|                                                   ....       ....    
|                                                                       
|                                                                       
|-----------------------------------------------------------------------|Gtr2
|-----------------------------------------------------------------------|
|-----------------------------------------------------------------------|
|-5-----------------------7-----------------------9------9-8-9------9-8-|
|-3-----------------------5-----------------------7-7777-7-6-7-7777-7-6-|
|-----------------------------------------------------------------------|
                                                    ....       ....     
                                                                        
                                                                         
|-------------------------/14-11-----------------------------------------|Gtr1
|-------------13-17-13-17--------13--------------------------------------|
|----------12-----------------------14-11--------------------------------|
|----10-14--------------------------------13-10-----9---------9-12-11-9--|
|-12--------------------------------------------12--7-7777777-7-10--9-7--|
|------------------------------------------------------------------------|
| .  .  .  .                                          .......            
|                                                                        
|                                                                        
|------------------------------------------------------------------------|Gtr2
|------------------------------------------------------------------------|
|-5------------------------5---------------------------------------------|
|-5------------------------5------------------------9---------9-12-11-9--|
|-3------------------------3------------------------7-7777777-7-10--9-7--|
|------------------------------------------------------------------------|
                                                      .......



Riff D                               1st ending   2nd ending
|-----------------------------------|------------|-------------|Gtr1
|-------6--------------8------------|-5--------6-|-------------|
|-------5--------------7------------|-4--------5-|-------------|
|-2-----3--------2-----5--------2---|-2--------3-|-2-------3---|
|-0--------------0--------------0---|------------|-2-------3---|
|-----------------------------------|------------|-------------|
|
|
|
|--------------------------------------------------------------|Gtr2
|--------------------------------------------------------------|
|--------------------------------------------------------------|
|--------------------------------------------------------------|
|-777777101010999777777555101010777777101010999------777101010-|
|----------------------------------------------888888----------|
  ............................................................



Riff E
|----------------------------------------|Gtr1
|----6"-------4"-------------------------|
|----5"-------3"-------------------------|
|-5"-3"----5"-1"----5"-0--------------8"-|
|-5"-------5"-------5"-0-----6"----9"----|
|-3"-------3"-------3"-------------------|
|
|
|
|----------------------------------------|Gtr2
|----------------------------------------|
|-------------------------------------8"-|
|-5"-8"-7"-5"-3"-8"-5"-8"-7"----7"-8"----|
|----------------------------9"----------|
|----------------------------------------|



Riff F
|-----------------------------------------------------------------|Gtr1
|-----------------------------------------------------------------|
|-----------------------------------------------------------------|
|-5-x-5-x-5-5-5-3--5-x-5-x-5--1--5--3-----------------------------|
|-5-x-5-x-5-5-5-3--5-x-5-x-3--1--
Добавлено: 12.07.2012
Другие материалы по этой песне:
  • Аккорды и текст

Страница создана 12.07.2012
http://primanota.ru/children-of-bodom/hatebreeder-album-chords.htm
Привет, Гость.
Предлагаем пройти революционный курс по гитаре.
Подарок от PrimaNota.Ru, забирай!