PrimaNota.ru - самый крупный в мире бесплатный архив песенных текстов, аккордов, табулатур и нот


Children Of Bodom - Iinto Tokyo Warhearts - аккорды и текст, таба, видео

Регистрация Запомнить меня
Войти через:  Facebook Google Twitter Vk Yandex Mail.ru

Children Of Bodom - Iinto Tokyo Warhearts - аккорды и текст, таба, видео

Печатать
Просмотров: 158
Iinto Tokyo Warhearts
Children Of Bodom
Artist:	Children of Bodom
Album:	Tokyo warhearts
Title:	Intro

tune one whole step (E=D, B=A, G=F, D=C, A=G, E=D)

(Without distortion)

E|-------------------------------------------------------|---12-----------------------|
B|---------------------------------12--------------------|-------15--12---------------|
G|-----------------------------12------14~-----14--12----|o-------------12-14--12--14-|
D|-2--------------------------------------------------14-|o---------------------------|
A|-2-----------------------------------------------------|----------------------------|
E|-0-----------------------------------------------------|----------------------------|


E|--------------------------------------------------12-------------------------------------------|
B|-----------------------------------------------------15--12------------------------------------|
G|-------12--14--12--14--12--14--12---------------------------12-14-14-12--14-----12--14--12--14-|
D|---14------------------------------14----12--14------------------------------14----------------|
A|-----------------------------------------------------------------------------------------------|
E|-----------------------------------------------------------------------------------------------|


E|-----------12----------------------------|
B|--12-13-15----15--12---------------------|
G|----------------------12----------------o|
D|-------------------------14-----9------o|
A|--------------------------------7-------|
E|-----------------------------------------|


=let ring
Добавлено: 29.09.2013
Другие материалы по этой песне:
  • Аккорды и текст

Страница создана 06.04.2012
http://primanota.ru/children-of-bodom/iinto-tokyo-warhearts-chords.htm
Привет, Гость.
Предлагаем пройти революционный курс по гитаре.
Подарок от PrimaNota.Ru, забирай!