PrimaNota.ru - самый крупный в мире бесплатный архив песенных текстов, аккордов, табулатур и нот


Children Of Bodom - Follow The Reaper (album) - таба, видео

Регистрация Запомнить меня
Войти через:  Facebook Google Twitter Vk Yandex Mail.ru

Children Of Bodom - Follow The Reaper (album) - таба, видео

Печатать
Просмотров: 198
Children of Bodom
Follow the reaper Album
Tabbed by Kevin Cruz (Kevin666)

WARNING: IF THIS PAGE IS HARD TO READ, CHECK OUT THE 
         TABS OF THE SONGS INDIVIDUALY

1.Follow the Reaper       | Kevin666
2.Bodom after Midnight    | SolidMetaL
3.Children of Decadence   | Risto A.
4.Everytime i die         | SolidMetaL
5.Mask of Sanity          | Michiel Quakernaat
6.Taste my Scythe         | Kevin666
7.Hate me                 | Bodom@666.zzn.com
8.Northern Comfort        | THE SANDMAN
9.Kissing the Shadows     | THE SANDMAN
10.Hellion (Wasp Cover)   | Jani Ylikangas
 
-----------------------------------------------------------------------------

Tune down one whole step
Guitar 1                                 1.
D:-------------------|-----------------|-----------------------------------|
A:-------------------|-----------------|-----------------------------------|
F:-------------------|-----------------|-----------------------------------|
G:-9---9h10-9---9----|-9--9h10-9p7-----|-9---9h10-9---9----9---9h10-5-7-10-|
C:-7-7-7----7-7-7h10-|-7-7-7---7---7-7-|-7-7-7----7-7-7h10-7-7-7----3-5-8--|
D:-------------------|-----------------|-----------------------------------|
     .        .          .         .       .        .        .
                                         2.
                                       |-------------------|---------------|
                                       |-------------------|---------------|
                                       |-------------------|---------------|
                                       |-9---9h10-9---9--7-|--9p7-5--7p5-9-|
                                       |-7-7-7----7-7-7--5-|--5---3--3---7-|
                                       |-------------------|---------------|
                                           .        .

                                       1.
D:-----------------|------------------|-------------------|----------------|
A:-----------------|------------------|-------------------|----------8-----|
F:-----------------|------------------|-------------------|--------6---6---|
G:---9h10-9---9----|-9---9h10-9p7-----|-9---9h10-9---9----|-9---------8s11-|
C:-7-7----7-7-7h10-|-7-7-7----7---7-7-|-7-7-7----7-7-7h10-|-7-7-7----------|
D:-----------------|------------------|-------------------|----------------|
   .        .          .          . .     .        .          . .
                               2.
                             |-------------------|-------------|-----------|
                             |-------------------|-------------|-----------|
                             |-------------------|-------------|-----4-7-9~|
                             |-9---9h10-9---9--4-|-2---2-----4-|-2---5-4-9~|
                             |-7-7-7----7-7-7----|---5----5-3--|---5-------|
                             |-------------------|-------------|-----------|
                                 .        .

D:----------------|------------|-----------|
A:----------------|------------|---8-------|
F:-10~------------|------------|-9---6---9-|
G:-10~---10--7--9-|------------|-------8---|
C:-------8---5--7-|-Dive\Raise-|-----------|
D:----------------|-0\---------|-----------|

D:-----|----------------|----------|----------|
A:-----|----------------|----------|----------|
F:-----|----------------|----------|----------|
G:--9--|10---10---7-----|-5~-4~----|-------4~-|
C:--7--|8----8----5---5-|-------7~-|-5~-7~----|
D:-----|----------------|----------|----------|
                      .

D:-----------------|---------|--------------------------------|
A:-----------------|---------|--------------------------------|
F:-----------------|---------|--------------------------------|
G:-9----/11s12\11--|-\7s5/9--|------------------------------9-|
C:-7----/9-s10\9---|-\5s3/7--|------------------------8-8-8-7-|
D:-----------------|---------|-0-000-0-0-000-0-0-000--6-6-6---|
                               . ... . . ... . . ...

D:---------|-------------|-----------------------------------|
A:---------|-------------|-----------------------------------|
F:---------|-------------|-----------------------------------|
G:-\7s5/7--|--/12s11\9---|-----------------------4--4--4--5--|
C:-\5s3/5--|--/10s9-\7---|-----------------------------------|
D:---------|-------------|-0-000-0-0-000-0-0-000-------------|
                           . ... . . ... . . ...

D:-----------------|------------------------|-------------------------------|
A:-----------------|------------------------|-------------------------------|
F:------------4----|------------------------|-------------------------------|
G:-5-5-5-5-7-----7-|-7--7--7--7--7--5--4--5-|-----------------------------5-|
C:-----------------|------------------------|-----------------------8-8-8---|
D:-----------------|------------------------|-0-000-0-0-000-0-0-000-6-6-6---|
                                              . ... . . ... . . ...

D:---------------|-----------------|------------------------|---------------|
A:---------------|-----------------|------------9-----------|---------------|
F:---------------|-----------------|------8-----------8-----|---------------|
G:-5-5-5-5-4---4-|-4-4-4-4-4-5-4---|---7-----7-----7-----7--|---------------|
C:-----------7---|---------------7-|-0----------------------|---------2-5-4-|
D:---------------|-----------------|------------------------|-000-000-0-3-2-|
                                     . .     .     .     .    ... ... . . .

Chorus
D:-----------------|-----------------|-------------------------|------------|
A:-----------------|-----------------|-------------------------|------------|
F:-9-9-9-9-7-7-5-7-|-9-9-7-7-7-7-7-7-|---------4---5---4-----4-|-5--7--5--4~|
G:-7-7-7-7-5-5-5-5-|-7-7-7-7-5-5-5-5-|-x----7-------------7----|------------|
C:-----------------|-----------------|---7---------------------|------------|
D:-----------------|-----------------|-------------------------|------------|

D:-----------------|-----------------|---------------------|----------------|
A:-----------------|---------8-------|---------------------|----------------|
F:-9-9-9-9-4-4-5-5-|-7-7-7-7-----7---|-------4--5--4-----4-|-5-7s9-7---10-9-|
G:-7-7-7-7-2-2-3-3-|-5-5-5-5---5---5-|----7-----------7----|---------7------|
C:-----------------|-----------------|-7-------------------|----------------|
D:-----------------|-----------------|---------------------|----------------|
                                                                     .

D:------------------------|-----------------------|
A:------------------------|-----------------------|
F:-7-----9--7-------7-----|-----------------------|
G:-------------10------10-|-9--7-\6---------------|
C:----10----------8-------|---------8--7--5-------|
D:------------------------|------------------8--7-|
      .           .                 .  .  .  .  .

D:----------------7-|--7-------------|---------------7~|-7-----------------|
A:-/9-9-7---7-9-----|----9-7-9-7---7-|-9-9-7---7-9-----|---9-7-9-7h9p7---7-|
F:--------9-----9---|------------9---|-------9-----9---|---------------9---|
G:------------------|----------------|-----------------|-------------------|
C:------------------|----------------|-----------------|-------------------|
D:------------------|----------------|-----------------|-------------------|

D:----------------|-----------------|-----------------|----------|
A:-9-7---------7~-|-9-7-----------7-|-----------------|----------|
F:-----9-8~--9----|-----9-6~--8-9---|-9-8-6---6-8-6~--|---/18\---|
G:----------------|-----------------|-------9---------|----------|
C:----------------|-----------------|-----------------|----------|
D:----------------|-----------------|-----------------|----------|

                   ---PLAY 4 TIMES-------------------------------------------|
D:----------------------7~-|--7----------------------------------------------|
A:-9--9--7-----7--9--7-----|-----9--7--9--7-----7----------------------------|
F:----------9--------------|-----------------9-------------------------------|
G:-------------------------|-------------------------------------------------|
C:-------------------------|-------------------------------------------------|
D:-------------------------|-------------------------------------------------|
                   ---PLAY 3 TIMES-------------------------------------------|              4.
D:----------------------10-|-10-------------------|--------------------------|
A:-12-12-10----10-12-------|----12-10-12-10----10-|-17-----------------------|
F:----------12-------12----|----------------12----|----16--------------------|
G:-------------------------|----------------------|-------17-16-14-14--------|
C:-------------------------|----------------------|-------------------16-13--|
D:-------------------------|----------------------|--------------------------|

Bridge                                  1.
D:------------------|-----------------||---------13-------|-13------------|
A:---------15-------|-15--------------||---------12-------|-12------------|
F:-7-------13-------|-13--------9--7--||-7----------------|---------------|
G:-7-0-0-0----0-0-0-|----0-0-0-10--8--||-7-0-0-0----0-0-0-|----0-0-0-7--5-|
C:------------------|-----------------||------------------|---------------|
D:------------------|-----------------||------------------|---------------|
     . . .    . . .      . . .             . . .    . . .      . . .

                                        2.
                                     D:-------------|------|
                                     A:-------------|------|
                                     F:--14---7-----|--9---|
                                     G:--12---8-----|--6---|
                                     C:-------------|------|
                                     D:-------------|------|

                         1.                       2.
D:------------------13-||-----------------------||-------13-17-13-15----|
A:--------15-----------||---------15-13---------||-----15------------17-|
F:---12-14-----14-15---||---12-14------15-14-12-||---14-----------------|
G:-12--------12--------||-12--------------------||-12-------------------|
C:---------------------||-----------------------||----------------------|
D:---------------------||-----------------------||----------------------|

                     1.                    2.
D:---------------8-||--------------------||-------8-12-8-10----|
A:------10-----10--||-------10-8---------||-----10----------12-|
F:---7-9-----9-----||---7-9-------10-9-7-||---9----------------|
G:-7-------7-------||-7------------------||-7------------------|
C:-----------------||--------------------||--------------------|
D:-----------------||--------------------||--------------------|
   . . .   . . .      . . .                 . .

REPEAT CHORUS
REPEAT 2ND PART OF CHORUS 2x

INTERLUDE
D:-17-------------------19-|-20-17-17-19-19-15-15-17-|
A:----17-17-20-20----------|-------------------------|
F:----------------19-19----|-------------------------|
G:-------------------------|-------------------------|
C:-------------------------|-------------------------|
D:-------------------------|-------------------------|

D:-17p12------12-15p12------12-|-15p12------12-13p12-----|
A:------13--13--------13--13---|------13--13--------13---|
F:--------14------------14-----|--------14------------12-|
G:-----------------------------|-------------------------|
C:-----------------------------|-------------------------|
D:-----------------------------|-------------------------|

D:-20--22--24--22-20\19--|-24-22-20-22--20\19-|
A:-----------------------|--------------------|
F:-----------------------|--------------------|
G:-----------------------|--------------------|
C:-----------------------|--------------------|
D:-----------------------|--------------------|

D:-----------------------------------17-|-----------|
A:-------------------------13-15-17-----|-----------|
F:-----------------12-14-16-------------|-----------|
G:---------12-14-15---------------------|-----------|
C:-12-14-15-----------------------------|-/x\--/x\--|
D:--------------------------------------|-----------|

Keyboard solo

|-------------------------------|
|-----------???solo???----------|
|-------------------------------|
|-------------------------------|
 
 Solo
D:------------------------------------|--------------------------17-|
A:------15----------15--------(15)b17-|-17~----------15-17-19\20----|
F:-(14)b16-----(14)b16-r14--12--------|-----14-16-17----------------|
G:------------------------------------|-----------------------------|
C:------------------------------------|-----------------------------|
D:------------------------------------|-----------------------------|

|-19---19-19----------17--|-201917201917-----------------|
|------------20-17-20-----|-------------201917201917-----|
|-------------------------|-------------------------1917-|
|-------------------------|------------------------------|
|-------------------------|------------------------------|
|-------------------------|------------------------------|

|-----19---------22s24--19-|-2219--1922192219--19221922191919-|
|---17----15s17------------|-----23----------23---------------|
|-16-----------------------|----------------------------------|
|--------------------------|----------------------------------|
|--------------------------|----------------------------------|
|--------------------------|----------------------------------|

|-221819221918---------------------|----------------------------------|
|-------------20191719201917-------|-----------------------------1719-|
|---------------------------191716-|-171917161716----------161719-----|
|----------------------------------|-------------1917161719-----------|
|----------------------------------|----------------------------------|
|----------------------------------|----------------------------------|

|-------0-----------|-----------------------------------|
|-(22)b24--r22-b24--|-------------------------------12--|
|-------------------|-(14)b16--r14-12-14------12-14-----|
|-------------------|-------------------14--------------|
|-------------------|-----------------------------------|
|-------------------|-----------------------------------|

|--------------------------------(17)b19---|
|----------------(15)b17-r15--12-----------|
|-(14)b16-r14--12--------------------------|
|------------------------------------------|
|------------------------------------------|
|------------------------------------------|

-----------------------------------------------------------------------------

Bodom after Midnight

INTRO
                A                               B      C
-|---------------------------------------------------------|
-|---------------------------------------------------------|
-|---------------------------------------------------------|
-|-----------------------------------------------------9-7-|
-|-10p7-7-7-7-7-7-7-10p7-7-7-9p7-12p7-10p7-7-7-7-7-7-7-7-5-|
-|---------------------------------------------------------|
  p.m.  . . . . . .      . .               . . . . . .                        

-|-----------------------------------------------------------|
-|-----------------------------------------------------------|
-|-----------------------------------------------------------|
-|-----------------------------------------------------------|
-|-10p7-7-7-7-7-7-7-10p7-7-7-9p7-12p7-10p7-7-7-7-7-7-7-10-12-|
-|-----------------------------------------------------8--10-|
  p.m.  . . . . . .      . .               . . . . . .                        


INTRO-SOLO

-|-11p8-----------------------------------------------------------------------
-|------11p8-11p8------11p8---------------------------------------------------
-|----------------10p8------10p8-10p8------10p8-------------------------------
-|------------------------------------10p8------10p8-10p8------10p8-----------
-|--------------------------------------------------------10p8------10p8------
-|----------------------------------------------------------------------------
  p.m.  .. . .. . .. .      .. . .. . .. .      .. . .. . .. .      .. .      

------------------------------------------------------------------------------
--------------------------------------------------------------------9h11-9----
------------------------------------------------8--------10p13-8h10-----------
----------------------------------8--------8-10----10h13----------------------
-10p8--------------8---------8-10-----8-10------------------------------------
------11p8-8-10-11-----10-11--------------------------------------------------
 .. . .. .                                                                    

-------8-10----8-10-12\/\-|
-11-12------12------------|
--------------------------|
--------------------------|
--------------------------|
--------------------------|



-|----------------------------------------------------------------------------
-|----------------------------------------------------------------------------
-|------------------------11-11-------------------------12-11-----------------
-|----------------------------------------------------------------------------
-|------------------------9--9--------------------------10-9------------------
-|-0--0-0-0-0-0-0-0-0-0-0--------0--0-0-0-0-0-0-0-0-0-0--------0--0-0-0-0-0---
                                                                              

-------------------15-------14------12--------------|
---------------------17-------15------13----13------|
-----------------------16-------14------12----12----|
-------------------------17-------16------14----14--|
-----------12-12----------------------------------15|
-0-0-0-0-0-10-10------------------------------------|
                                                                              
-|----------------------------------------------------------------------------
-|----------------------------------------------------------------------------
-|------------------------------------------------------12-11-----------------
-|------------------------12-12-----------------------------------------------
-|------------------------12-12-------------------------10-9------------------
-|-0--0-0-0-0-0-0-0-0-0-0-10-10--0--0-0-0-0-0-0-0-0-0-0--------0--0-0-0-0-0---
                                                                              

-------------------15-------14------12--------------|
---------------------17-------15------13----13------|
-----------------------16-------14------12----12----|
-------------------------17-------16------14----14--|
-----------12-12----------------------------------15|
-0-0-0-0-0-10-10------------------------------------|

-|----------------------------------------------------------------------------
-|----------------------------------------------------------------------------
-|------------------------------------------------------12-11-----------------
-|------------------------12-12-----------------------------------------------
-|------------------------12-12-------------------------10-9------------------
-|-0--0-0-0-0-0-0-0-0-0-0-10-10--0--0-0-0-0-0-0-0-0-0-0--------0--0-0-0-0-0---
                                                                              

------------------20p19p17-20p19p17---------------------------------------------------------|
--------------------------------------20p19p17-20p19p17-------------------------------------|
--------------------------------------------------------19p17p16-19p17p16-------------------|
--------------------------------------------------------------------------19p17p16-19p17p16-|
-----------12-12----------------------------------------------------------------------------|
-0-0-0-0-0-10-10----------------------------------------------------------------------------|


-|----------------------------------------------------------------------------
-|----------------------------------------------------------------------------
-|----------------------------------------------------------------------------
-|--------7--------------------------------------5----7-----------------------
-|-19v17--5---10p7-7-7-7-7-7-7-10p7-7-7-9p7-12p7-3----5---9-------------12----
-|--------------------------------------------------------7-7-7-7-7-7-7-10----
  p.m.             . . . . . .      . .                     . . . . . .       

			       1. Interlude
-----------------------------|------------------------------------------------
-----------------------------|------------------------------------------------
-----------------------------|---------------------4--------------------------
-------------------12-11-9-7-|---------5-2---2-2-2---5---------5-2------------
-------------------10-9--7-5-|-3-3-3-3-----------------3-3-3-3-------2-2-2----
-10-10-10-10-10-10-----------|------------------------------------------------
 .. .. .. .. .. ..             . . . .       . . .     . . . .       . . .    

------------------------------------------------------------------------------
------------------------------------------------------------------------------
-------------------------4-----------------------------------------------4----
-4^----------5-2---2-2-2---5---------5-2---------8-----------5-2---2-2-2---5--
-----3-3-3-3-----------------3-3-3-3-----7-7-7-7-6---3-3-3-3------------------
------------------------------------------------------------------------------
     . . . .       . . .     . . . .     . . . .     . . . .       . . .      

--------------------------------------------------------------------------|
--------------------------------------------------------------------------|
---------------------4^----------------------4----------------------------|
---------5-2---2-2-2-------------5-2---2-2-2---5---------5-2------5-----5-|
-3-3-3-3-----------------3-3-3-3-----------------3-3-3-3------7-7-7-7-7-7-|
--------------------------------------------------------------------------|
 . . . .       . . .     . . . .       . . .     . . . .      . .   . .       

-|------------------------------------------------------------------------|
-|------------------------------------------------------------------------|
-|--------------------------------------------------------8---------------|
-|-9------------------8-8---9--------------------7---7-10----9------------|
-|-7------------------6-6---7-------------7-9-10---9---------7------------|
-|---0-0-0-0-0-0-0-00-----x---0-0-0-0-0-0---------------------0-0-0-0-0-0-|
                                        

				Second Verse
-|----------------------------|-----------------------------------------------
-|----------------------------|-----------------------------------------------
-|-----9p7p5------------------|-------------------------12-12-----------------
-|-8-8-------9p7p5\4---5-7-9--|-------------------------12-12-----------------
-|-6-6---------------7-7-9-10-|-0---0-0-0-0-0-0-0-0-0-0-10-10---0---0-0-0-0---
-|----------------------------|-----------------------------------------------
                       . . ..                                                 

-|-------------------------------------------------|-20----------19-----------
-|-------------13-12-------------------------------|----22----------20--------
-|-------------------------------------------12-12-|-------21----------19-----
-|-------------10-9--------------------------12-12-|----------22----------21--
-|-0-0-0-0-0-0-------0---0-0-0-0-0-0-0-0-0-0-10-10-|--------------------------
-|-------------------------------------------------|--------------------------
                                                                              

-17-------------------------------------------------------------------------
----18-------18----------a.h.-----------------------------------------------
-------17-------17-------7b9------release---(7)-------12-12-----------------
----------19-------19---------------------------------12-12-----------------
----------------------20------0---0-0-0-0-0-0-0-0-0-0-10-10---0---0-0-0-0---
----------------------------------------------------------------------------


----------------------------------------------------|
---------------13-12--------------------------------|
---------------------------------------------12-12--|
---------------10-9--------------------------12-12--|
---0-0-0-0-0-0-------0---0-0-0-0-0-0-0-0-0-0-10-10--|
----------------------------------------------------|
                                                                              

-|----12h15p15------------------------------------------------|
-|-15----------15-13-15-13-12----17-15-13----15-13------------|
-|----------------------------14----------16-------16-14------|
-|-------------------------------------------------------15\--|
-|------------------------------------------------------------|
-|------------------------------------------------------------|



-|---------------------------------------------------------------
-|---------------------------------------------------------------
-|-7-----------------------------------7---7----9-10-9-7---------
-|-5---5h7-------------5h7-----5h7-----3---5-------------10-9\/--
-|---------0-0-0-0-0-0-----0-0-----0-0--------7------------------
-|---------------------------------------------------------------
                                                . .. . . ..      

-------------------------|----------------------------------------------------
-------------------------|----------------------------------------------------
-9-10-9-7------12-11-9-7-|----------------------9-------------------------9---
----------10-9-10-9--7-5-|---------10-7---7-7-7---10---------10-7---7-7-7-----
-------------------------|-8-8-8-8-------------------8-8-8-8------------------
-------------------------|----------------------------------------------------
 . .. . . .. .             . . . .        . . .      . . . .        . . .     

------------------------------------------------------------------------------
------------------------------------------------------12----------------------
----------------------9------------------12-9-9-9-9-9----12-------------12-9--
---------10-7---7-7-7---10---10-10-10-10--------------------10-10-10-10-------
-8-8-8-8----------------------------------------------------------------------
------------------------------------------------------------------------------
 . . . .        . . .        .. .. .. ..      . . . .       .. .. .. ..       

----------------------------------------------------------------------------|
-------12-----------------------------12-----------------------------12-----|
-9-9-9----12-------------12-9---9-9-9-------------------12-9---9-9-9----12--|
-------------10-10-10-10--------------------10-10-10-10---------------------|
----------------------------------------------------------------------------|
----------------------------------------------------------------------------|
 . . .       .. .. .. ..        . . .                          . . .          
			      CHORUS	
-|--------------------------|---------------------------------------------|
-|--------------------------|---------------------------------------------|
-|--------------------------|-9-----9-------------9----9------------------|
-|-7-9-10-6-7-9-4-5-7-2-4-5-|-9--10-9-9---9-10\/\-9-10-9----12------11----|
-|--------------------------|-7--10-7-9-7---------7-10-7-10----10-9----9--|
-|--------------------------|----8----7-------------8---------------------|
                                                                        
         Bridge - play the part on the G-String twice!
-|-----|----------------------------------------------------------------------
-|-----|----------------------------------------------------------------------
-|-----|-0-0-3-0-5-0-7-0-8-0-0-5-0-0-7-0-0-0-3-0-5-0-7-0-5-0-0-2-0-0-3-0-0-0--
-|-9-7-|----------------------------------------------------------------------
-|-7-5-|----------------------------------------------------------------------
-|-----|----------------------------------------------------------------------
         . . . . . . . . . . . . . . . . . . . . . . . . . . . . . . . . . .  
         use a deep and wide flanger to play it like the album version

-----------------------------------------------------------|------------------
-----------------------------------------------------------|----0-0-3-0-5-0---
-3-0-5-0-7-0-8-0-0-5-0-0-7-0-0-0-3-0-5-0-7-0-5-0-0-2-0-0-3-|-3/---------------
-----------------------------------------------------------|------------------
-----------------------------------------------------------|------------------
-----------------------------------------------------------|------------------
 . . . . . . . . . . . . . . . . . . . . . . . . . . . .                      

------------------------------------------------------------------------------
-7-0-8-0-0-5-0-0-7-0-0-0-3-0-5-0-7-0-5-0-0-2-0-0-3-0-0-0-3-0-5-0-7-0-8-0-0-5--
------------------------------------------------------------------------------
------------------------------------------------------------------------------
------------------------------------------------------------------------------
------------------------------------------------------------------------------
                                                                              

----------------------------------------0-0-15-0-17-0-19-0-20-0-0-17-0-0-19-0-0-0-
-0-0-7-0-0-0-3-0-5-0-7-0-5-0-0-2-0-0-3/-------------------------------------------
----------------------------------------------------------------------------------
----------------------------------------------------------------------------------
----------------------------------------------------------------------------------
----------------------------------------------------------------------------------
                                                                              

-15-0-17-0-19-0-17-0-0-14-0-0-15-0-0-0-15-0-17-0-19-0-20-0-0-17-0-0-19-0-0-0-15-0-17-0-19-0--
---------------------------------------------------------------------------------------------
---------------------------------------------------------------------------------------------
---------------------------------------------------------------------------------------------
---------------------------------------------------------------------------------------------
------------------------------------------------------------------------------
                                                                              

-17-0-0-14-0-0-15/-|------------------------------------15\---|--------------------
-------------------|-15----x 12-12-12-12-12-12-x\----*--/-----|--------------------
-------------------|-14b16-x 12-12-12-12-12-12-x\----*--/-----|--------------------
-------------------|------------------------------------------|--------------------
-------------------|------------------------------------------|-10p7-7-7-7-7-7-7---
-------------------|------------------------------------------|--------------------
                  Wide Wah-Wah and flange effects...            . . . . . .   
					
					SOLO-RIFF
-------------------------------------|----------------------------------------
-------------------------------------|----------------------------------------
-------------------------------------|----------------------------------------
-------------------------------------|----------------------------------------
-10p7-7-7-12p7-9p7-7-7-7-7-7-7-10-12-|--10--------------10-----8---8--10------
-------------------------------8--10-|-/8--8-8-8-8-8-8-/8--8-8-6-x-6-/8--8-8--
      . .          . . . . . .             . . . . . .     . .           . .  

------------------------------------------------------------------------------
------------------------------------------------------------------------------
------------------------------------------------------------------------------
-----------------8------------------8-------------10--------------12----------
-----------------6-8-10-------------6-6-6-6-6-6-6-8--8-8-8-8-8-8--10-10-10----
-8-8-8-8-8-8-8-8---6-8--8-8-8-8-8-8-------------------------------------------
 . . . . . . . .        . . . . . .   . . . . . .    . . . . . .     .. ..    

-------------|----------------------------------------------------------------
-------------|----------------------------------------------------------------
-------------|----------------------------------------------------------------
-------------|-7---------------7---------3-*-7-----------55-7-7-7-77-7-7------
-10-10-10-10-|-5-555-555-5533335-555-555-1-3-5-555-555-5533-5-5-5-55-5-5------
-------------|----------------------------------------------------------------
 .. .. .. ..     ... ... ......  ... ...       ... ... .... . . . .. . .      

	GUITAR SOLO
------|----------------17-19-17----17-19-20-22-20-19--------------------------
------|-20-19-17-19-20----------20-------------------22-20-19-17-20-19-17-----
------|-----------------------------------------------------------------------
-7777-|-----------------------------------------------------------------------
-5555-|-----------------------------------------------------------------------
------|-----------------------------------------------------------------------
 ....  

------------------------------------------------------------------------------
----------------------------------------------------------------------15-17---
-19-17-16-19-17-16-------------------------------------------16-17-19---------
-------------------19-17-16-19-17-16----------------16-17-19------------------
-------------------------------------19-17-15-17-19---------------------------
------------------------------------------------------------------------------
   					   .. .. .. .. .. .. .. .. .. .. 

-------------------------------------------------16-19p15-------------17p14---
-19-17-17-16b-17*-16b-17-15h18p15----------15-18----------17------------------
----------------------------------16-15-16-------------------16---------------
----------------------------------------------------------------17------------
-------------------------------------------------------------------19---------
------------------------------------------------------------------------------
                                                                              

-------------15p12----------12-17p12------------------------------------------
-15----------------13----13----------13-----------------------------10h11h----
----14----------------12----------------14--------------10h11h12h13-----------
-------16-----------------------------------11h12h13h14-----------------------
----------17------------------------------------------------------------------
------------------------------------------------------------------------------
					     thx to Janne Posti for helping    

-------9h10h11h12p11p10p9-----------------------------------------------------
-12h13--------------------13p12p11p10h11h12p11p10-----------------------------
--------------------------------------------------13p12p11p10h11h12p11p10-----
-------------------------------------------------------------------------t14p-
------------------------------------------------------------------------------
------------------------------------------------------------------------------
during that part!!                                                                              

--------------------------------------------------14/19-19-20-19-17-----------
--------------------------------------------12/16-----------------------------
-----------------------------------------11-----------------------------------
-13p12p11p10h11h12h13p12p11p10p9p8----13--------------------------------------
-----------------------------------14-----------------------------------------
------------------------------------------------------------------------------
                                                                              

-------------------------------------------------------|
-20-19-19-17----19-17----------------------------------|
-------------20-------19-17-16-19-17-16----------------|
----------------------------------------19-17-16-------|
-------------------------------------------------19-17-|
-------------------------------------------------------|

after the solo, there are 3 harmonics, and I'll try to desribe how to play them :

1. Play the natural harmonic on 7th fret on G-string
2. Grab your whammy-bar like you would increase 2-semitones, and release it slowly
3. Play the natural harmonic on 5th fret on G-string BUT 
   have the whammy bar already pushed down to increase 2 semitones
4. lower whammy-bar to normal position
5. Play the ARTIFICIAL harmonic on 3th fret on G-string bended two semitones higher 
   and have the whammy-bar one more time pushed down to increase 2 semitones
6. lower whammy bar to normal position, and release bending

To get this cool sound, Alexi doubles this part, I think with artifical harmonics.
But THIS is the way as he played it live!
If you don't understand my words, here is it in tabulature


|----------------------------------------------------------------------------------------|
|-n.h.---------\------------n.h.-\-----------a.h.--\-------------------------------------|
|-7*-(9)--------\--(7)------5(7)--\---5------3(7)---\(5)-3*------------------------------|
|----whammy------\-----------------\-----------------\-----------------------------------|
|------------release---------------------------------------------------------------------|
|----------------------------------------------------------------------------------------|

  |     |     |      |         |   |  |       |     |  |    |
  v     v     v      v         v   v  v       v     v  v    v 

  0 +1 +2    +1      0        +2  +1  0      +2    +1  0   (-1)  

This is the position of the whammy bar 
       

|-0-0-15-0-17-0-19-0-20-0-0-17-0-0-19-0-0-0-15-0-17-0-19-0-17-0-0-14-0-0-15-0-0-0-15-0-17-0-19-
|----------------------------------------------------------------------------------------------
|----------------------------------------------------------------------------------------------
|----------------------------------------------------------------------------------------------
|----------------------------------------------------------------------------------------------
|----------------------------------------------------------------------------------------------
                                                                              

-0-20-0-0-17-0-0-19--20-19-17-----------------------------------------------------|
---------------------------20-19-17-----------------------------------------------|
------------------------------------19-17-16--------------------------------------|
----------------------------------------------19-17-16-------------------2--------|
-------------------------------------------------------19-17-15----------2--------|
----------------------------------------------------------------19-17-15-0--------| 
 
-----------------------------------------------------------------------------

Children Of Bodom: Children Of Decadence
Guitar (Alexi)
Tabbed by Risto A.


D||--------------12--------------12--|--------------12------------------------|
A||--12------12------13------13------|--12------12-------------------12-13-15-|
F||----------------------------------|------------------14--11-12-14----------|
C||------14--------------14----------|------14--------------------------------|
G||----------------------------------|----------------------------------------|
D||----------------------------------|----------------------------------------|

--------------12--------------12--|---------------------------14-15-17-19--20--|
--12------12------13------13------|--12-----------12-13-15-17------------------|
----------------------------------|------11-12-14------------------------------|
------14--------------14----------|--------------------------------------------|
----------------------------------|--------------------------------------------|
----------------------------------|--------------------------------------------|

--------------12--------------12--|--------------12------------------------|
--12------12------13------13------|--12------12-------------------12-13-15-|
----------------------------------|------------------14--11-12-14----------|
------14--------------14----------|------14--------------------------------|
----------------------------------|----------------------------------------|
----------------------------------|----------------------------------------|

--------------12--------------12--|--12-----------------------------------|
--12------12------13------13------|------12-12-15-15-10-10-12-12----------|
----------------------------------|------------------------------7-7-9----|
------14--------------14----------|---------------------------------------|
----------------------------------|---------------------------------------|
----------------------------------|---------------------------------------|

--------------12--------------12--|--------------12------------------------|
--12------12------13------13------|--12------12-------------------12-13-15-|
----------------------------------|------------------14--11-12-14----------|
------14--------------14----------|------14--------------------------------|
----------------------------------|----------------------------------------|
----------------------------------|----------------------------------------|

--------------12--------------12--|---------------------------14-15-17-19--20--|
--12------12------13------13------|--12-----------12-13-15-17------------------|
----------------------------------|------11-12-14------------------------------|
------14--------------14----------|--------------------------------------------|
----------------------------------|--------------------------------------------|
----------------------------------|--------------------------------------------|

--------------12--------------12--|--------------12------------------------|
--12------12------13------13------|--12------12-------------------12-13-15-|
----------------------------------|------------------14--11-12-14----------|
------14--------------14----------|------14--------------------------------|
----------------------------------|----------------------------------------|
----------------------------------|----------------------------------------|

--------------12--------------12--|--12----------------------------------------|
--12------12------13------13------|------12-12-15-15-10-10-12-12-8-8-10-10-----|
----------------------------------|----------------------------------------7-7-|
------14--------------14----------|--------------------------------------------|
----------------------------------|--------------------------------------------|
----------------------------------|--------------------------------------------|

--------------------|--------------------------------|
--------------------|--------------------------------|
--10~---------------|--------------------------------|
--------------------|--------------------------------|
--------------------|--2-2--2-2-2-2-2-2-2--2-2-2-2-2-|
--------------------|--------------------------------|

--------------------------------|--------------------------------|
--------------------------------|--------------------------------|
--------------------------------|--------------------------------|
--------------------------------|--------------------------------|
--2-2--2-2-2-2-2-2-2--2-2-2-2-2-|--2-2--2-2-2-2-2-2-2--2-2-2-2-2-|
--------------------------------|--------------------------------|

--------------------|--------------------------------|
--------------------|--------------------------------|
--10/---------------|--------------------------------|
--------------------|--4-4--4-4-4-4-4-4-4--4-4-4-4-4-|
--------------------|--2-2--2-2-2-2-2-2-2--2-2-2-2-2-|
--------------------|--------------------------------|

--------------------------------|--------------------------------|
--------------------------------|--------------------------------|
--------------------------------|--------------------------------|
--4-4--4-4-4-4-4-4-4--4-4-4-4-4-|--4-4--4-4-4-4-4-4-4--4-4-4-4-4-|
--2-2--2-2-2-2-2-2-2--2-2-2-2-2-|--2-2--2-2-2-2-2-2-2--2-2-2-2-2-|
--------------------------------|--------------------------------|

--------------------------------|--------------------------------|
--------------------------------|--------------------------------|
--------------------------------|--------------------------------|
--4-4--4-4-4-4-4-4-4--4-4-4-4-4-|--4-4--4-4-4-4-4-4-4--4-4-4-4-4-|
--2-2--2-2-2-2-2-2-2--2-2-2-2-2-|--2-2--2-2-2-2-2-2-2--2-2-2-2-2-|
--------------------------------|--------------------------------|

--------------------------------|-------------------------------|
--------------------------------|-------------------------------|
--------------------------------|-------------------------------|
--4-4--4-4-4-4-4-4-4--4-4-4-4-4-|--4-4--4-4-4-4-4-4-4----9--11--|
--2-2--2-2-2-2-2-2-2--2-2-2-2-2-|--2-2--2-2-2-2-2-2-2-9---------|
--------------------------------|-------------------------------|

----------------------19~-----|------------------------------------------|
----------------------19~-----|--14---15---15-15-17-15-14-12-15-14-12-14-|
------------------------------|------------------------------------------|
--12-11-9-11-----9------------|------------------------------------------|
--------------12--------------|------------------------------------------|
------------------------------|------------------------------------------|

------------------------------------------|
--14---15---15-15-17-15-14-12-15-14-12-14-|
------------------------------------------|
------------------------------------------|
------------------------------------------|
------------------------------------------|

----------------------------------------|
--14---12---12--12-12-12-12-12-12-12-12-|
----------------------------------------|
----------------------------------------|
----------------------------------------|
----------------------------------------|

----------------------------------------|
--14---12---12--12-12-12-12-12-12-12-12-|
----------------------------------------|
----------------------------------------|
----------------------------------------|
----------------------------------------|

------------------------------------------|
--14---15---15-15-17-15-14-12-15-14-12-14-|
------------------------------------------|
------------------------------------------|
------------------------------------------|
------------------------------------------|

------------------------------------------|
--14---15---15-15-17-15-14-12-15-14-12-14-|
------------------------------------------|
------------------------------------------|
------------------------------------------|
------------------------------------------|

----------------------------------------|----------------------------|
--14---12---12--12-12-12-12-12-12-12-12-|--11-12---------------------|
----------------------------------------|--------11-12-10/-----------|
----------------------------------------|----------------------------|
----------------------------------------|----------------------------|
----------------------------------------|----------------------------|

--------------------------------|-------------------------------|
--------------------------------|-------------------------------|
--------------------------------|---------------------------7---|
--------------------------------|---------------------------7---|
--2-2--2-2-2-2-2-2-2--2-2-2-2-2-|--2-2--2-2-2-2-2-2-2-2-2-2-5---|
--0-0--0-0-0-0-0-0-0--0-0-0-0-0-|--0-0--0-0-0-0-0-0-0-0-0-0-----|

--------------------------------|------------------------------|
--------------------------------|------------------------------|
--------------------------------|--x-x-3--x-x-2--x-x-4--x-x-3--|
--------------------------------|--x-x-5--x-x-4--x-x-6--x-x-5--|
--2-2--2-2-2-2-2-2-2--2-2-2-2-2-|------------------------------|
--0-0--0-0-0-0-0-0-0--0-0-0-0-0-|------------------------------|

--------------------------------|-------------------------------|
--------------------------------|-------------------------------|
--------------------------------|---------------------------7---|
--------------------------------|---------------------------7---|
--2-2--2-2-2-2-2-2-2--2-2-2-2-2-|--2-2--2-2-2-2-2-2-2-2-2-2-5---|
--0-0--0-0-0-0-0-0-0--0-0-0-0-0-|--0-0--0-0-0-0-0-0-0-0-0-0-----|

--------------------------------|---------------------|
--------------------------------|---------------------|
--------------------------------|--5---7---7----------|
--------------------------------|--5---7---7----------|
--2-2--2-2-2-2-2-2-2--2-2-2-2-2-|--3---5---5----------|
--0-0--0-0-0-0-0-0-0--0-0-0-0-0-|---------------------|

---------------------12--------|---------------------------------------|
-------------------------12-12-|--15-15-10-10-12-12-8-8-10-10----------|
--7/9-9-9-9--7--9--------------|------------------------------7-7-9----|
--7/9-9-9-9--7--9--------------|---------------------------------------|
--5/7-7-7-7--5--7--------------|---------------------------------------|
-------------------------------|---------------------------------------|

-------------------------|------------------14--15--14----|
-------------------------|--15--17--17--15----------------|
--7/9-9-9-9--7--9--------|--------------------------------|
--7/9-9-9-9--7--9--------|--------------------------------|
--5/7-7-7-7--5--7--------|--------------------------------|
-------------------------|--------------------------------|

---------------------12--------|---------------------------------------|
-------------------------12-12-|--15-15-10-10-12-12-8-8-10-10----------|
--7/9-9-9-9--7--9--------------|------------------------------7-7-9----|
--7/9-9-9-9--7--9--------------|---------------------------------------|
--5/7-7-7-7--5--7--------------|---------------------------------------|
-------------------------------|---------------------------------------|

-------------------------|--------------------------------|
-------------------------|--------------------------------|
--7/9-9-9-9--7--9--------|------------------11h-12h-11----|
--7/9-9-9-9--7--9--------|--12h-14--14--12----------------|
--5/7-7-7-7--5--7--------|--------------------------------|
-------------------------|--------------------------------|

------------------------|-----------------------------|------------------------|
--8---7---8/------------|-----------------------------|--8---7---8/------------|
--9---7---9/------------|-----------------------------|--9---7---9/------------|
------------------------|-----------------------------|------------------------|
---------------2--2--2--|--2--2--2-2-2-2-2--2-2-2--2--|---------------2--2--2--|
---------------0--0--0--|--0--0--0-0-0-0-0--0-0-0--0--|---------------0--0--0--|

----------------------------|------------------------|
------------12--------------|--8---7---8/------------|
-----12---------12----11----|--9---7---9/------------|
--9------9------------------|------------------------|
----------------------------|---------------2--2--2--|
----------------------------|---------------0--0--0--|

-----------------------------|--13---10---12/------------|
-----------------------------|---------------------------|
-----------------------------|--10---7----9/-------------|
-----------------------------|---------------------------|
--2--2--2-2-2-2-2--2-2-2--2--|------------------2--2--2--|
--0--0--0-0-0-0-0--0-0-0--0--|------------------0--0--0--|

----------------------------|----------------------------|
----------------------------|----------------------------|
----------------------------|----------------------------|
----------------------------|----------------------------|
--2--2--2-2-2--2--2-2-2--2--|--2--2--2-2-2--2--2-2-2--2--|
--0--0--0-0-0--0--0-0-0--0--|--0--0--0-0-0--0--0-0-0--0--|

----------------------------|--------------------------|
----------------------------|--------------------------|
----------------------------|--------------------------|
----------------------------|---------------------3----|
--2--2--2-2-2--2--2-2-2--2--|--2--2--2-2-2--2-2---3----|
--0--0--0-0-0--0--0-0-0--0--|--0--0--0-0-0--0-0---1----|

--------14--17--16--14------14--|--------14--17--16----------14--|
----14------------------17------|----14--------------17--14------|
--------------------------------|--------------------------------|
--------------------------------|--------------------------------|
--------------------------------|--------------------------------|
--------------------------------|--------------------------------|

------------------------------|--------------------------------|
--14---17---14----------------|-----14-17-15-14----------------|
----------------16---14---13--|--14-------------16-14----------|
------------------------------|--------------------------------|
------------------------------|--------------------------------|
------------------------------|--------------------------------|

--------14--17--16--14------14--|--------14--17--16----------14--|
----14------------------17------|----14--------------17--14------|
--------------------------------|--------------------------------|
--------------------------------|--------------------------------|
--------------------------------|--------------------------------|
--------------------------------|--------------------------------|

------------------------------|--------------------------------------------|
--14---17---14----------------|-----14-17-15-14----14-------14-17-15-14----|
----------------16---14---13--|--14-------------16-------14-------------16-|
------------------------------|--------------------------------------------|
------------------------------|--------------------------------------------|
------------------------------|--------------------------------------------|

--------------------------------------------|
-----14-17-15-14----14-------14-17-15-14----|
--14-------------16-------14-------------16-|
--------------------------------------------|
--------------------------------------------|
--------------------------------------------|

-----17-21-19-17----17-------17-21-19-17----|--21-19-17------------------|
--19-------------21-------19-------------21-|-----------21-19------------|
--------------------------------------------|----------------------------|
--------------------------------------------|----------------------------|
--------------------------------------------|----------------------------|
--------------------------------------------|----------------------------|

--------------11--------------11--|--------------11------------------------|
--11------11------12------12------|--11------11-------------------11-12-14-|
----------------------------------|------------------13--10-11-13----------|
------13--------------13----------|------13--------------------------------|
----------------------------------|----------------------------------------|
----------------------------------|----------------------------------------|

--------------11--------------11--|---------------------------13-14-16-18--19--|
--11------11------12------12------|--11-----------11-12-14-16------------------|
----------------------------------|------10-11-13------------------------------|
------13--------------13----------|--------------------------------------------|
----------------------------------|--------------------------------------------|
----------------------------------|--------------------------------------------|

--------------11--------------11--|--------------11------------------------|
--11------11------12------12------|--11------11-------------------11-12-14-|
----------------------------------|------------------13--10-11-13----------|
------13--------------13----------|------13--------------------------------|
----------------------------------|----------------------------------------|
----------------------------------|----------------------------------------|

--------------11--------------11--|
--11------11------12------12------|
----------------------------------|
------13--------------13----------|
----------------------------------|
----------------------------------|

--11h14h11----------------------------------------------|
-----------11h14h11----11-------------------------------|
--------------------11----10----11----------------------|
-----------------------------13----11-------------------|
--------------------------------------13-16-11-13-------|
--------------------------------------------------13-14-|

------------------------------------------|
--14---15---15-15-17-15-14-12-15-14-12-14-|
------------------------------------------|
------------------------------------------|
------------------------------------------|
------------------------------------------|

------------------------------------------|
--14---15---15-15-17-15-14-12-15-14-12-14-|
------------------------------------------|
------------------------------------------|
------------------------------------------|
------------------------------------------|

----------------------------------------|----------------------------19~---|
--14---12---12--12-12-12-12-12-12-12-12-|--14---12---12--12-12-12-12-19~---|
----------------------------------------|----------------------------------|
----------------------------------------|----------------------------------|
----------------------------------------|----------------------------------|
----------------------------------------|----------------------------------|

------------------------------------------|
--14---15---15-15-17-15-14-12-15-14-12-14-|
------------------------------------------|
------------------------------------------|
------------------------------------------|
------------------------------------------|

------------------------------------------|
--14---15---15-15-17-15-14-12-15-14-12-14-|
------------------------------------------|
------------------------------------------|
------------------------------------------|
------------------------------------------|

----------------------------------------|
--14---12---12--12-12-12-12-12-12-12-12-|
----------------------------------------|
----------------------------------------|
----------------------------------------|
----------------------------------------|

----------------------------------------|--------------------------------|
--14---12---12--12-12-12-12-12-12-12-12-|--------------------------------|
----------------------------------------|--------------------------------|
----------------------------------------|--8-8--8-8-8-8-8-8-8--8-8-8-8-8-|
----------------------------------------|--6-6--6-6-6-6-6-6-6--6-6-6-6-6-|
----------------------------------------|--------------------------------|

-------------------------------|--------------------------------|
-------------------------------|--------------------------------|
-------------------------------|--------------------------------|
--8-8--8-8-8-8-8-8-8-8-8-8-9---|--8-8--8-8-8-8-8-8-8--8-8-8-8-8-|
--6-6--6-6-6-6-6-6-6-6-6-6-9---|--6-6--6-6-6-6-6-6-6--6-6-6-6-6-|
---------------------------7---|--------------------------------|

-------------------------------|--------------------------------|
-------------------------------|--------------------------------|
---------------------------6---|--------------------------------|
--8-8--8-8-8-8-8-8-8-8-8-8-6---|--8-8--8-8-8-8-8-8-8--8-8-8-8-8-|
--6-6--6-6-6-6-6-6-6-6-6-6-4---|--6-6--6-6-6-6-6-6-6--6-6-6-6-6-|
-------------------------------|--------------------------------|

-------------------------------|--------------------------------|
-------------------------------|--------------------------------|
-------------------------------|--------------------------------|
--8-8--8-8-8-8-8-8-8-8-8-8-9---|--8-8--8-8-8-8-8-8-8--8-8-8-8-8-|
--6-6--6-6-6-6-6-6-6-6-6-6-9---|--6-6--6-6-6-6-6-6-6--6-6-6-6-6-|
---------------------------7---|--------------------------------|

------------------------------|---------------------12--------|
------------------------------|-------------------------12-12-|
--x-x-3--x-x-2--x-x-4--x-x-3--|--7/9-9-9-9--7--9--------------|
--x-x-5--x-x-4--x-x-6--x-x-5--|--7/9-9-9-9--7--9--------------|
------------------------------|--5/7-7-7-7--5--7--------------|
------------------------------|-------------------------------|

---------------------------------------|-------------------------|
--15-15-10-10-12-12-8-8-10-10----------|-------------------------|
------------------------------7-7-9----|--7/9-9-9-9--7--9--------|
---------------------------------------|--7/9-9-9-9--7--9--------|
---------------------------------------|--5/7-7-7-7--5--7--------|
---------------------------------------|-------------------------|

------------------14--15--14----|---------------------12--------|
--15--17--17--15----------------|-------------------------12-12-|
--------------------------------|--7/9-9-9-9--7--9--------------|
--------------------------------|--7/9-9-9-9--7--9--------------|
--------------------------------|--5/7-7-7-7--5--7--------------|
--------------------------------|-------------------------------|

---------------------------------------|-------------------------|
--15-15-10-10-12-12-8-8-10-10----------|-------------------------|
------------------------------7-7-9----|--7/9-9-9-9--7--9--------|
---------------------------------------|--7/9-9-9-9--7--9--------|
---------------------------------------|--5/7-7-7-7--5--7--------|
---------------------------------------|-------------------------|

--------------------------------|------------------------|
--------------------------------|--8---7---8/------------|
------------------11h-12h-11----|--9---7---9/------------|
--12h-14--14--12----------------|------------------------|
--------------------------------|---------------2--2--2--|
--------------------------------|---------------0--0--0--|

-----------------------------|------------------------|
-----------------------------|--8---7---8/------------|
-----------------------------|--9---7---9/------------|
-----------------------------|------------------------|
--2--2--2-2-2-2-2--2-2-2--2--|---------------2--2--2--|
--0--0--0-0-0-0-0--0-0-0--0--|---------------0--0--0--|

----------------------------|------------------------|
------------12--------------|--8---7---8/------------|
-----12---------12----11----|--9---7---9/------------|
--9------9------------------|------------------------|
----------------------------|---------------2--2--2--|
----------------------------|---------------0--0--0--|

-----------------------------|--13---10---12/------------|
-----------------------------|---------------------------|
-----------------------------|--10---7----9/-------------|
-----------------------------|---------------------------|
--2--2--2-2-2-2-2--2-2-2--2--|------------------2--2--2--|
--0--0--0-0-0-0-0--0-0-0--0--|------------------0--0--0--|

--------------------------|--------14--17--16--14------14--|
--------------------------|----14------------------17------|
--------------------------|--------------------------------|
---------------------3----|--------------------------------|
--2--2--2-2-2--2-2---3----|--------------------------------|
--0--0--0-0-0--0-0---1----|--------------------------------|

--------14--17--16----------14--|------------------------------|
----14--------------17--14------|--14---17---14----------------|
--------------------------------|----------------16---14---13--|
--------------------------------|------------------------------|
--------------------------------|------------------------------|
--------------------------------|------------------------------|

--------------------------------|--------14--17--16--14------14--|
-----14-17-15-14----------------|----14------------------17------|
--14-------------16-14----------|--------------------------------|
--------------------------------|--------------------------------|
--------------------------------|--------------------------------|
------------------------
Добавлено: 15.04.2012
Другие материалы по этой песне:
  • Аккорды и текст

Страница создана 15.04.2012
http://primanota.ru/children-of-bodom/follow-the-reaper-album-chords.htm
Привет, Гость.
Предлагаем пройти революционный курс по гитаре.
Подарок от PrimaNota.Ru, забирай!