PrimaNota.ru - самый крупный в мире бесплатный архив песенных текстов, аккордов, табулатур и нот


Childish Gambino - Shadows - таба, видео

Регистрация Запомнить меня
Войти через:  Facebook Google Twitter Vk Yandex Mail.ru

Childish Gambino - Shadows - таба, видео

Печатать
Просмотров: 111
-------------------------------------------------------------------------------
                             Shadows - Childish Gambino
-------------------------------------------------------------------------------
Tabbed by: iiiivar
E-mail:

Not sure which is first, the third or fourth string. Anywho, my first tab, enjoy :)

Tuning: Standard

[0:00-2:00]

e|---------------------------------------------------------------------------|
B|---------------------------------------------------------------------------|
G|--------8--------8--------8--------8---------11---------11---------11------|
D|-----6--------6--------6--------6---------9----------9----------9----------|
A|--8--------8--------8--------8--------11---------11---------11---------11--|
E|---------------------------------------------------------------------------|

e|---------------------------------------------------------------------------|
B|---------------------------------------------------------------------------|
G|---11--------10--------10--------10--------10--------8--------8--------8---|
D|9---------8---------8---------8---------8---------8--------8--------8------|
A|-------9---------9---------9---------9---------9--------9--------9---------|
E|---------------------------------------------------------------------------|

e|---------------------------------------------------------------------------|
B|---------------------------------------------------------------------------|
G|-------8-------------------------------------------------------------------|
D|----8----------------------------------------------------------------------|
A|-9-------------------------------------------------------------------------|
E|---------------------------------------------------------------------------|

If there's an interest in the rest of the song, I can figure out the rest and post it!
Добавлено: 16.04.2015
Другие материалы по этой песне:
  • Аккорды и текст

Страница создана 16.04.2015
http://primanota.ru/childish-gambino/shadows-chords.htm
Привет, Гость.
Предлагаем пройти революционный курс по гитаре.
Подарок от PrimaNota.Ru, забирай!