PrimaNota.ru - самый крупный в мире бесплатный архив песенных текстов, аккордов, табулатур и нот


Childish Gambino - That Power Outro - таба, видео

Регистрация Запомнить меня
Войти через:  Facebook Google Twitter Vk Yandex Mail.ru

Childish Gambino - That Power Outro - таба, видео

Печатать
Просмотров: 64
Уроки эстрадного вокала в Санкт-Петербурге
-------------------------------------------------------------------------------
                             That Power - Childish Gambino
-------------------------------------------------------------------------------
Tabbed by: carterkelliott
E-mail: carterelliott@gmail.com

Tuning: Standard

This one is pretty simple. The first loop of the instrumental, without the talking, goes like this.
I recommend you just loop this for consistency if you're trying to nail it note for note, but as always,
have a little fun with it!

--Carter

e|-------------------7--7--7----7h10p7-------------|
B|-5--------------5--8--8--8----------8h10p8-------|
G|-5--------------5--7--7--7----------------7h9p7--|
D|-5--------------5--9--9--9-----------------------|
A|-7--------------5--7--7--7-----------------------|
E|-5--------------5--------------------------------|

e|-5--5--5-----5--5-5------------------------------|
B|-7--7--7-----7--7-7-7--7-7--7--7-7--7------------|
G|-6--6--6-----6--6-6------------------------------|
D|-7--7--7-----7--7-7-5--5-5--5--5-5--5------------|
A|-5--5--5-----5--5-5------------------------------|
E|-------------------------------------------------|


************************************

| /   slide up
| \   slide down
| h   hammer-on
| p   pull-off
| ~   vibrato
| +   harmonic
| x   Mute note
| b   Bend
| pb  Pre-bend
| br  Bend release
| pbr Pre-bend release
| brb Bend release bend

************************************
Добавлено: 18.05.2016
Другие материалы по этой песне:
  • Аккорды и текст

Страница создана 18.05.2016
http://primanota.ru/childish-gambino/that-power-outro-chords.htm
Привет, Гость.
Предлагаем пройти революционный курс по гитаре.
Подарок от PrimaNota.Ru, забирай!