PrimaNota.ru - самый крупный в мире бесплатный архив песенных текстов, аккордов, табулатур и нот


Childish Gambino - Sober Gabe Bondoc Version - таба, видео

Регистрация Запомнить меня
Войти через:  Facebook Google Twitter Vk Yandex Mail.ru

Childish Gambino - Sober Gabe Bondoc Version - таба, видео

Печатать
Просмотров: 136
The chords Gabe Bondoc played when covering "Sober" originally by Childish Gambino. 
Hope you enjoy:)
(PS: this is my first tab, please comment if you appreciate it and want me to continue. )


Repeat same three chords for the whole song!


C#M9
        
e-------------|        
b----6--------|
g----7--------|
d----5--------|
a----6--------|
e-------------|


Cm9

e-------------|
b----3--------|
g----3--------|
d----1--------|
a----3--------|
e-------------|


D#M9

e-------------|
b----4--------|
g----5--------|
d----3--------|
a----4--------|
e-------------|



C#M9                                  Cm9 
And now that's it's over, I'll never be sober
               D#M9                 C#M9
I couldn't believe, but now I'm so high
C#M9                                  Cm9   
And now that's it's over, I'll never be sober
               D#M9                 C#M9
I couldn't believe, but now I'm so high


When he starts to sing "Now I'm so high" repeatedly, this is what Gabe plays:

Cm9 - G9sus4 - G7b13


Cm9

e-------------|
b----3--------|
g----3--------|
d----1--------|
a----3--------|
e-------------|


G9sus4

e-------------|
b----1--------|
g----2--------|
d----3--------|
a-------------|
e----3--------|


G7b13

e-------------|
b----4--------|
g----4--------|
d----3--------|
a-------------|
e----3--------|

Then he moves up the fretboard and plays exactly the same chord progression just 2 frets higher.

And the last time, he plays the original chord progression: C#M9 - Cm9 - D#M9 , but this time starting higher 
on the fret board. 


e-------------|          
b----8--------|         
g----9--------|         
d----7--------|          
a----8--------|          
e-------------|    


e-------------|
b----5--------|
g----5--------|
d----3--------|
a----5--------|
e-------------|


e-------------|
b----6--------|
g----7--------|
d----5--------|
a----6--------|
e-------------|                  
Добавлено: 16.04.2015
Другие материалы по этой песне:
  • Аккорды и текст

Страница создана 16.04.2015
http://primanota.ru/childish-gambino/sober-gabe-bondoc-version-chords.htm
Привет, Гость.
Предлагаем пройти революционный курс по гитаре.
Подарок от PrimaNota.Ru, забирай!