PrimaNota.ru - самый крупный в мире бесплатный архив песенных текстов, аккордов, табулатур и нот


Chemical Brothers - The Salmon Dance - текст песни, таба, видео

Регистрация Запомнить меня
Войти через:  Facebook Google Twitter Vk Yandex Mail.ru

Chemical Brothers - The Salmon Dance - текст песни, таба, видео

Печатать
Просмотров: 125
Авторы: Derrick Stewart, Tom Rowlands, Ed Simons

-------------------------------------------------------------------------------
                      SALMON DANCE - Chemical Brothers
-------------------------------------------------------------------------------
Tabbed by: Seismatters
Tuning: Standard E A D G B E

Capo 1

There are two parts to this song:


VERSE RIFF

  E                  E                      E                      E                
e|-5-6-5-0-1-0-------|-8--5-6-5-0-1-0-------|-8--5-6-5-0-1-0-------|-8--5-6-5-0-1-0-------|
B|-------------0-1-0-|----------------0-1-0-|----------------0-1-0-|----------------0-1-0-|
G|-------------------|----------------------|----------------------|----------------------|
D|-------------------|----------------------|----------------------|----------------------|
A|-------------------|----------------------|----------------------|----------------------|
E|-------------------|----------------------|----------------------|----------------------|

CHORUS RIFF ( I'm floooooooooatiiiiing upstreeeeeeam (You know how we do it, you know how we do it...))

  D#m                 Csus4    B#
e|-7-------7--12---15--17------15--------12-15-12----------------------------------------|
B|------8-----------------------------0--------------------------------------------------|
G|---------------------------------------------------------------------------------------|
D|---------------------------------------------------------------------------------------|
A|---------------------------------------------------------------------------------------|
E|---------------------------------------------------------------------------------------|


I'd just like to thank Sammy the Salmon and his amazing Salmon Dance.
Добавлено: 10.12.2015
Другие материалы по этой песне:
  • Аккорды и текст

Страница создана 07.10.2013
http://primanota.ru/chemical-brothers/the-salmon-dance-chords.htm
Привет, Гость.
Предлагаем пройти революционный курс по гитаре.
Подарок от PrimaNota.Ru, забирай!