PrimaNota.ru - самый крупный в мире бесплатный архив песенных текстов, аккордов, табулатур и нот


Chelsea Grin - Letters - таба, бас-таба, видео

Регистрация Запомнить меня
Войти через:  Facebook Google Twitter Vk Yandex Mail.ru

Chelsea Grin - Letters - таба, бас-таба, видео

Печатать
Просмотров: 451
Well, it took me some time to learn by ear and watch the play through video by Jason 
Richardson,I didn't find this tab anywhere, so I make it for who need it, thanks and 
support the band! PD: this is my first tab! Enjoy it,this solo is amazing.

Tuning Drop C

Actually, I believe that Jason uses Drop G, but I play it in this tuning.

D|----------------------------------------------------------------|
A|------------------10/13---15-13-12-13---10----12-13----13-15-17-|
F|-9------14------9-------0-------------9----12-------14----------|
C|---7/10----10\7-------------------------------------------------|
G|----------------------------------------------------------------|
C|----------------------------------------------------------------|


D|---------------------------------------------------------------|
A|----17-15-13----------12-13-12-13----17----17-15-17-15-13------|
F|-14----------16-14-12-------------14----14----------------14---|
C|---------------------------------------------------------------|
G|---------------------------------------------------------------|
C|---------------------------------------------------------------|


D|-------------------------14/22---19-20--20-22--19----19-20-22--|
A|-17----17-15-13-------13--------------------------20-----------|
F|----14-------------12------------------------------------------|
C|----------------14---------------------------------------------|
G|---------------------------------------------------------------|
C|---------------------------------------------------------------|
Добавлено: 24.09.2014
Другие материалы по этой песне:

Страница создана 24.09.2014
http://primanota.ru/chelsea-grin/letters-chords.htm
Привет, Гость.
Предлагаем пройти революционный курс по гитаре.
Подарок от PrimaNota.Ru, забирай!