PrimaNota.ru - самый крупный в мире бесплатный архив песенных текстов, аккордов, табулатур и нот


Chelsea Grin - Undying - таба, видео

Регистрация Запомнить меня
Войти через:  Facebook Google Twitter Vk Yandex Mail.ru

Chelsea Grin - Undying - таба, видео

Печатать
Просмотров: 194
Chelsea Grin - Undying
Standard Tuning(This song is played on an 8 string) 
Tabbed by Lorcan Ward

Cover Video:
https://www.youtube.com/watch?v=HD47gsnou6g

Guitar Solo at 3:20

|----------------------------------------------------------------------|
|----------------------------------------------------------------------|
|--9~~~~~~~~\-------------9------11~~~~~~-\-------------11---12~~~~~~~-|
|----------------------9----------------------------9------------------|
|-----------------/10--------------------------/10---------------------|
|----------------------------------------------------------------------|

|----------------------------------------------------------------------|
|--------------------------------/17~~~~~------------------------------|
|--12\8----------11/15~~~~~~-------------------------------------------|
|--------10--9---------------------------------------------------------|
|----------------------------------------------------------------------|
|----------------------------------------------------------------------|

|-------------------------------------------------------19-22-20-19-------|
|-16-16-16-16-16-16-19-20-19-17----------------16-17-19-------------22-20-|
|-------------------------------17-16-14-16-17----------------------------|
|-------------------------------------------------------------------------|
|-------------------------------------------------------------------------|
|-------------------------------------------------------------------------|

|------------------------------15-19-20-19-15----------------------------|
|----------16h17h19---------19----------------19-------------------------|
|-------17------------15-20----------------------20-15----18p15----------|
|----17------------------------------------------------16-------16-------|
|-19---------------------------------------------------------------16----|
|---------------------------------------------------------------------18-|

|---------------------------------------------------------------------|
|-----------------------------------------16h19-----------17h19-------|
|-------------------------14h16------------------16h17h20-------------|
|---------16h17------------------16h17--------------------------------|
|-----------------16h18-----------------------------------------------|
|--14h15--------------------------------------------------------------|

|-------------------------------------|
|--19b(20)r19p17\16--16~~~~~~~\-------|
|-------------------------------------|
|-------------------------------------|
|-------------------------------------|
|-------------------------------------|

Second Guitar solo at 3:56

|---------------------------------------------------------------------|
|-----------------------------------------16h19-----------17h19-------|
|-------------------------14h16------------------16h17h20-------------|
|---------16h17------------------16h17--------------------------------|
|-----------------16h18-----------------------------------------------|
|--14h15--------------------------------------------------------------|

|-------------------------------------|
|--19b(20)r19p17\16--16~~~~~~~\-------|
|-------------------------------------|
|-------------------------------------|
|-------------------------------------|
|-------------------------------------|

|--------------------------------------------------|
|--------------------------------------------------|
|-----------------10-------14-10----10-------------|
|--------11-12-14----14-12-------12----12-11-------|
|--12-13-------------------------------------13-10-|
|--------------------------------------------------|

|--------------------------------------------------|
|--------------------------------------------------|
|-----------------------10-12-14-10----------------|
|--------11-12-14-11-14-------------12-14-11-------|
|--12-13-------------------------------------13-10-|
|--------------------------------------------------|
 
|-----------------13-------17-13----13-------------|
|--------14-15-17----17-15-------15----15-14-------|
|--14-15-------------------------------------15----|
|-----------------------------------------------17-|
|--------------------------------------------------|
|--------------------------------------------------|
 
|-----------------------13-15-17-13----------------|
|--------14-15-17-14-17----------------17-14-------|
|--14-15----------------------------14-------15----|
|-----------------------------------------------15-|
|--------------------------------------------------|
|--------------------------------------------------|
 
|--------------------------------------------------|
|--------------------------------------------------|
|-----------------13-------17-13----13-------------|
|--------14-15-17----17-15-------15----15-14-------|
|--15-16-------------------------------------16-13-|
|--------------------------------------------------|
 
|--------------------------------------------------|
|--------------------------------------------------|
|-----------------------13-15-17-13----------------|
|--------14-15-17-14-17-------------15-17-15-------|
|--15-16-------------------------------------16----|
|-----------------------------------------------16-|
 
|---------------------------------------|
|---------------------------------------|
|--------------7------11-7---7----------|
|-------8-9-11---11-9------9---9-8------|
|--9-10----------------------------10-9-|
|---------------------------------------|

|--------------10----10-14-------------------------------------|
|--------11-12----12-------------------------------------------|
|-----12-------------------18-16-15----------------------------|
|--14-------------------------------17-16-14-17-16-14----------|
|-----------------------------------------------------16-14-13-|
|--------------------------------------------------------------|
 
|--------------------------------------------------|
|--------------------------------------------------|
|-----------------10-------14-10----10-------------|
|--------11-12-14----14-12-------12----12-11-------|
|--12-13-------------------------------------13-10-|
|--------------------------------------------------|

|--------------------------------------------------|
|--------------------------------------------------|
|-----------------------10-12-14-10----------------|
|--------11-12-14-11-14-------------12-14-11-------|
|--12-13-------------------------------------13-10-|
|--------------------------------------------------|
 
|-----------------13-------17-13----13-------------|
|--------14-15-17----17-15-------15----15-14-------|
|--14-15-------------------------------------15----|
|-----------------------------------------------17-|
|--------------------------------------------------|
|--------------------------------------------------|
  
|-----------------------13-21p17-------------------------------|
|--------14-15-17-14-17----------17----------------------------|
|--14-15----------------------------18-------18p14-------------|
|--------------------------------------19----------14----------|
|-----------------------------------------19----------16-------|
|--------------------------------------------------------17----|
  
|--------------------------------------------------|
|--------------------------------------------------|
|-----------------13-------17-13----13-------------|
|--------14-15-17----17-15-------15----15-14-------|
|--15-16-------------------------------------16-13-|
|--------------------------------------------------|
 
|-----------------------------------------------------18-20-21-|
|-----------------------------------17-18-20-18-20-21----------|
|-----------------------13-15-17-18----------------------------|
|--------14-15-17-14-17----------------------------------------|
|--15-16-------------------------------------------------------|
|--------------------------------------------------------------|

|-----------------10-14-12-10----------------------|
|--------11-14----------------14-11-14-12-11-------|
|-----12-------11----------------------------12-11-|
|--12----------------------------------------------|
|--------------------------------------------------|
|--------------------------------------------------|

|--------------10----10-14-------------------------------------|
|--------11-12----12-------------------------------------------|
|-----12-------------------18-16-15----------------------------|
|--14-------------------------------17-16-14-17-16-14----------|
|-----------------------------------------------------16-14-13-|
|--------------------------------------------------------------|
 
|---------------------------------------------------------------------|
|-----------------------------------------16h19-----------17h19-------|
|-------------------------14h16------------------16h17h20-------------|
|---------16h17------------------16h17--------------------------------|
|-----------------16h18-----------------------------------------------|
|--14h15--------------------------------------------------------------|

|-------------------------------------|
|--19b(20)r19p17\16--16~~~~~~~\-------|
|-------------------------------------|
|-------------------------------------|
|-------------------------------------|
|-------------------------------------|
Добавлено: 24.05.2015
Другие материалы по этой песне:

Страница создана 24.05.2015
http://primanota.ru/chelsea-grin/undying-chords.htm
Привет, Гость.
Предлагаем пройти революционный курс по гитаре.
Подарок от PrimaNota.Ru, забирай!