PrimaNota.ru - самый крупный в мире бесплатный архив песенных текстов, аккордов, табулатур и нот


Chelsea Grin - Calling In Silence - таба, видео

Регистрация Запомнить меня
Войти через:  Facebook Google Twitter Vk Yandex Mail.ru

Chelsea Grin - Calling In Silence - таба, видео

Печатать
Просмотров: 909
-------------------------------------------------------------------------------
                     Calling in Silence – Chelsea Grin
-------------------------------------------------------------------------------
Tabbed by: ZackAT1245

Tuning: Standard (EADGBE)

e|---------------------------------------------------------------------------|
B|---------------------------------------------------------------------------|
G|--7----7---7h9h10--9---7--6b--6~----7p6------------------------------------|
D|-----------------------------------------7p5----7---7--8--7--5--7--5-------|
A|---------------------------------------------------------------------------|
E|---------------------------------------------------------------------------|

e|---------------------------------------------------------------------------|
B|---------------------------------------------------------------------------|
G|---------------------------------10---10----10h12h13--12--10---9b--9~------|
D|---------------------------------------------------------------------------|
A|--8--7~---5--4--5--5/8---7-------------------------------------------------|
E|---------------------------------------------------------------------------|

e|---------------------------------------------------------------------------|
B|---------------------------------------------------------------------------|
G|--10p9---------------------------------------------------------------------|
D|--------10p8---10---10--12--10--8--10--8--7--5-----------------------------|
A|--------------------------------------------------8--7--8---8/12---10~-----|
E|---------------------------------------------------------------------------|

e|--12p8----------8---13p9----------9---15p11----------11----17b-------------|
B|-------10---10-----------11----11-----------13----13-----------------------|
G|----------9-----------------10-----------------12--------------------------|
D|---------------------------------------------------------------------------|
A|---------------------------------------------------------------------------|
E|---------------------------------------------------------------------------|

                                (Not so sure about this part) 
                                
e|--17b--15--14--15--14--12~---12h13p12-----12-----------12h14p12----12------|
B|---------------------------------------13----13p11h13-----------13---------|
G|---------------------------------------------------------------------------|
D|---------------------------------------------------------------------------|
A|---------------------------------------------------------------------------|
E|---------------------------------------------------------------------------|

e|-------------12h13p12----12-----------18p16p15-----------------------------|
B|--13p10h13------------13----13p11h13----------17p15p14---------------------|
G|-------------------------------------------------------17------------------|
D|---------------------------------------------------------------------------|
A|---------------------------------------------------------------------------|
E|---------------------------------------------------------------------------|

e|------------13h17-T18-p17p13--------------------13h17-T18-p17p13-----------|
B|----------15-----------------15---------------15-----------------15--------|
G|-------14-----------------------14---------14-----------------------14-----|
D|----15-----------------------------15----15----------------------------15--|
A|-17-----------------------------------17-----------------------------------|
E|---------------------------------------------------------------------------|

e|------------13h17-T24-p17p13---------------------13h17-T24-p17p13----------|
B|----------15-----------------15----------------15-----------------15-------|
G|-------14-----------------------14----------14-----------------------14----|
D|----15-----------------------------15----15-----------------------------15-|
A|-17-----------------------------------17-----------------------------------|
E|---------------------------------------------------------------------------|

e|------------13h17-T18-p17p13--------------------13h17-T18-p17p13-----------|
B|----------15-----------------15---------------15-----------------15--------|
G|-------14-----------------------14---------14-----------------------14-----|
D|----15-----------------------------15----15----------------------------15--|
A|-17-----------------------------------17-----------------------------------|
E|---------------------------------------------------------------------------|


e|--18p16p15----------17p15p14----------16p14p13------------12br---10~-------|
B|-----------17p15p14----------16p14p13----------15p13p12--------------------|
G|---------------------------------------------------------------------------|
D|---------------------------------------------------------------------------|
A|---------------------------------------------------------------------------|
E|---------------------------------------------------------------------------|




************************************

| /   slide up
| \   slide down
| h   hammer-on
| p   pull-off
| ~   vibrato
| T   tap
| +   harmonic
| x   Mute note
| b   Bend
| pb  Pre-bend
| br  Bend release
| pbr Pre-bend release
| brb Bend release bend

************************************


Добавлено: 22.05.2012
Другие материалы по этой песне:

Страница создана 30.03.2012
http://primanota.ru/chelsea-grin/calling-in-silence-chords.htm
Привет, Гость.
Предлагаем пройти революционный курс по гитаре.
Подарок от PrimaNota.Ru, забирай!