PrimaNota.ru - самый крупный в мире бесплатный архив песенных текстов, аккордов, табулатур и нот


Chelsea Grin - Cursed - таба, видео

Регистрация Запомнить меня
Войти через:  Facebook Google Twitter Vk Yandex Mail.ru

Chelsea Grin - Cursed - таба, видео

Печатать
Просмотров: 304
Tabbed by:
Aaron

Tuning: drop A


4x
intro
b|---------------------------------------------------------------------------|
F|---------------------------------------------------------------------------|
D|---------------------------------------------------------------------------|
A|101----101----10321--------------------------------------------------------|
E|101-0t-101-0t-10210-0t-----------------------------------------------------|
A|101----101----10321--------------------------------------------------------|



0:18-0:49
"Burn it down!!..."
b|---------------------------------------------------------------------------|
F|---------------------------------------------------------------------------|
D|---------------------------------------------------------------------------|
A|---------------------------------------------------------------------------|
E|0t-0-0t-0-0t-1111-0t-0-0t-0-0t-1010----------------------------------------|
A|---1----1----0000----1----1----2121----------------------------------------|


4x
0:50-1:22
"I'm the whisper inside your ear..."
b|---------------------------------------------------------------------------|
F|---------------------------------------------------------------------------|
D|---------------------------------------------------------------------------|
A|2121-2121-444-333-2121-2121------------------------------------------------|
E|1010-1010-333-222-1010-1010------------------------------------------------|
A|2121-2121-444-333-2121-2121------------------------------------------------|
there's a part in the background of this after
you play it the first two times. I'll try to add it later.


4x
1:22-1:54
b|----------------------------------------------------------------------------|
F|----------------------------------------------------------------------------|
D|5-4---------------5-4-------------------------------------------------------|
A|----1-----3----3------1-----------------------------------------------------|
E|3-2-1--21-1-21-1--3-2-1--0000-0-0-------------------------------------------|
A|----1--21---21--------1--1111-1-1-------------------------------------------|



  1:55-2:27
b|--------------------------------------------------------------------------------------|
F|--------------------------------------------------------------------------------------|
D|--------------------------------------------------------------------------------------|
A|--------------------------------------------------------------------------------------|
E|000-0-0-000-0-0-0-0--0-0-000-0-0-000-0-0-0-0--000-0-0-0--000-0-0-000-0-0-0-0-0-0-0-0--|
A|000-0-0-000-0-0-0-0--0-0-000-0-0-000-0-0-0-0--000-0-0-0--000-0-0-000-0-0-0-0-0-0-0-0--|
 |
 |2:11-2:31 (the last time when the other guitar stops only play 2x(2 1/2)
b|---------------------------------------------------------------------------|
F|---------------------------------------------------------------------------|
D|---------------------------------------------------------------------------|
A|---------------------------------------------------------------------------|
E|3~2b~---3~2b---3~2b~-------------------------------------------------------|
A|-----1~------1~-----1~~----------------------------------------------------|


2:32-2:47
b|---------------------------------------------------------------------------|
F|---------------------------------------------------------------------------|
D|---------------------------------------------------------------------------|
A|101----101----10321--------------------------------------------------------|
E|000-0t-000-0t-00210-0t-----------------------------------------------------|
A|101----101----10321--------------------------------------------------------|


2:47
b|-------------------|
F|-------------------|
D|-------------------|
A|-------------------|
E|0t-0-0t-0-0t-11-1t-|
A|---1----1----00----|

2:52-end
b|------------------------------------------------------------------------------|
F|------------------------------------------------------------------------------|
D|------------------------------------------------------------------------------|
A|------------------------------------------------------------------------------|
E|0t-0-0t-0-0t-11-1t-0t-0-0t-0-0t-1010------------------------------------------|
A|---1----1----00-------1----1----2121------------------------------------------|



That's it!! Please rate, thanks!
Добавлено: 16.06.2012
Другие материалы по этой песне:
  • Аккорды и текст

Страница создана 16.06.2012
http://primanota.ru/chelsea-grin/cursed-chords.htm
Привет, Гость.
Предлагаем пройти революционный курс по гитаре.
Подарок от PrimaNota.Ru, забирай!