PrimaNota.ru - самый крупный в мире бесплатный архив песенных текстов, аккордов, табулатур и нот


Chelsea Grin - All Hail The Fallen King - таба, видео

Регистрация Запомнить меня
Войти через:  Facebook Google Twitter Vk Yandex Mail.ru

Chelsea Grin - All Hail The Fallen King - таба, видео

Печатать
Просмотров: 190
Tabbed by:
Aaron

Tuning:
drop A#



intro
4x
e|---------------------------------------------------------------------------|
B|---------------------------------------------------------------------------|
G|---------------------------------------------------------------------------|
D|2~---------------5t--------4~---------7~-----------------------------------|
A|2~-2-2-11-2-11-2---3t-2t---3~-3-3-3-3-6~-6-6-6-6---------------------------|
E|2~-2-2-11-2-11-2--------5t-4~-4-4-4-4-7~-7-7-7-7---------------------------|
     . . .. . .. .              . . . .    . . . .

chorus:
0:27-0:46
"these are the darkest days of humanity..." 
e|--------------------------------------------------------------|
B|--------------------------------------------------------------|
G|---------------------9t-----12t-11t-9t-----11t----------------|
D|---10t-9t-----9t-10t----10t------------10t-----10t-9t---------|
A|7t--------10t-----------------------------------------10t-----|
E|--------------------------------------------------------------|
 |2x
e|---------------------------------------------------------------------------|
B|--------------------------------------------------11t----------------------|
G|---------------------9t-----12t-11t-9t-----9t-12t-----12t------------------|
D|---10t-9t-----9t-10t----10t------------10t---------------------------------|
A|7t--------10t--------------------------------------------------------------|
E|---------------------------------------------------------------------------|

0:46-1:04
"all hail the fallen king!!!!!"
e|---------------------------------------------------------------------------|
B|---------------------------------------------------------------------------|
G|---------------------------------------------------------------------------|
D|1-1-1-111-1-1-1--4-4-44-7-7-7-7-1-1-1-111-1-1-1--5-2-0-1-2-1-0-------------|
A|0-0-0-000-0-0-0--3-3-33-6-6-6-6-0-0-0-000-0-0-0--4-1-0-0-1-0-0-------------|
E|1-1-1-111-1-1-1--4-4-44-7-7-7-7-1-1-1-111-1-1-1--5-2-0-1-2-1-0-------------|
  . . . ... . . .  . . .. . . . . . . . ... . . .  . . . . . . .


1:04-1:21
I'm pretty sure this isn't exactly how this part is played but i tried anyway.
e|---------------------------------------------------------------------------|
B|---------------------------------------------------------------------------|
G|---------------------------------------------------------------------------|
D|---------------------0----3-------------------------5p2--------------------| 2x
A|---3t-2t----------11-0-11-3----3t-2t--------------------3p2----------------|
E|2t-------5t-2t-1t-11-0-11-3-2t-------5t-2t-1t-1-2-1------------------------|
                    ..   ..         

1:21-1:30                   
e|---------------------------------------------------------------------------|
B|---------------------------------------------------------------------------|
G|---------------------------------------------------------------------------|
D|---------------------5t-4t----4t-------------------------------------------|
A|---3t-2t----2t-------------3t----3t----3t-2t----2t----------3t----2t-------|
E|2t-------5t----5t-2t----------------2t-------5t----5t-2t-1t----1t----1t----|


chorus
1:30-1:49

solo
1:49-1:59


4x
e|---------------------------------------------------------------------------|
B|---------------------------------------------------------------------------|
G|---------------------------------------------------------------------------|
D|2~---------------5t--------4~---------7~-----------------------------------|
A|2~-2-2-11-2-11-2---3t-2t---3~-3-3-3-3-6~-6-6-6-6---------------------------|
E|2~-2-2-11-2-11-2--------5t-4~-4-4-4-4-7~-7-7-7-7---------------------------|
     . . .. . .. .              . . . .    . . . .



end
e|------------------------|
B|------------------------|
G|------------------------|
D|1-1--1--1111--1-1--1-1--|
A|0-0--0--0000--0-0--0-0--|
E|1-1--1--1111--1-1--1-1--|
Добавлено: 19.04.2012
Другие материалы по этой песне:

Страница создана 19.04.2012
http://primanota.ru/chelsea-grin/all-hail-the-fallen-king-chords.htm
Привет, Гость.
Предлагаем пройти революционный курс по гитаре.
Подарок от PrimaNota.Ru, забирай!