PrimaNota.ru - самый крупный в мире бесплатный архив песенных текстов, аккордов, табулатур и нот


Chelsea Grin - Disgrace - таба, видео

Регистрация Запомнить меня
Войти через:  Facebook Google Twitter Vk Yandex Mail.ru

Chelsea Grin - Disgrace - таба, видео

Печатать
Просмотров: 342
Уроки эстрадного вокала в Санкт-Петербурге
Song: Disgrace
Artist: Chelsea Grin
Album: Self Titled EP

Hi this is my first tab, i'm pretty sure it's right Micheal Stafford (from Chelsea Grin) 
it to me so it's 100% correct.
HAve fun!

^= Pinch Harmonic
*= Tremelo Picking
P= Pull Off
H= Hammer On

Disgrace

Intro:

E---------------------------------|
B---------------------------------|
G---------------------------------|
D---------------------------------|
A-0----0--0000-0----0----3-1-0----|
E-0----0--0000-0----0----3-1-0----|
A-0----0--0000-0----0----3-1-0----|


Verse:

Guitar 1 (Rhythm):
E--------------------------------------|
B--------------------------------------|
G--------------------------------------|
D--------------------------------------|
A-----------------3-0-4-0-3-0----------|
E-----4-0-5-0-7-0-------------4^-------|
A-0-0----------------------------------|
       P   P   P   P   P   P

E------------------------------------|
B------------------------------------|
G------------------------------------|
D------------------7*-6*-------------|
A----------------------8*-7*---------|
E-----4-0-5-0-7-0--------------------|
A-0-0--------------------------------|
       P   P   P

E-------------------------------------|
B-------------------------------------|
G-------------------------------------|
D-------------------------------------|
A-----------------3-0-4-0-3-0---------|
E-----4-0-5-0-7-0-------------4^------|
A-0-0---------------------------------|
       P   P   P   P   P   P

E--------------------------------|
B--------------------------------|
G--------------------------------|
D--------------------------------|
A-----------------33-11----------|
E-----4-0-5-0-7-0-33-11----------|
A-0-0-------------33-11----------| Play entire part again
      P    P   P

Guitar 2 (lead):

E--------------------------------------|
B--------------------------------------|
G--------------------------------------|
D--------------------------------------|Played with pull offs as well.
A------------------7-0-6-0-7-0---------|
E-----7-0-8-0-10-0-------------8^------|
A-0-0----------------------------------|
       P   P    P   P   P   P

E------------------------------------|
B------------------------------------|
G------------------------------------|
D------------------11*-10*-----------|
A------------------------12*-11*-----|
E-----7-0-8-0-10-0-------------------|
A-0-0--------------------------------|
       P   P    P

E-------------------------------------|
B-------------------------------------|
G-------------------------------------|
D-------------------------------------|
A------------------7-0-6-0-7-0--------|
E-----7-0-8-0-10-0-------------8^-----|
A-0-0---------------------------------|
       P   P    P   P   P   P

E--------------------------------|
B--------------------------------|
G--------------------------------|
D--------------------------------|
A------------------33-11---------|
E-----7-0-8-0-10-0-33-11---------|
A-0-0--------------33-11---------|
       P   P    P

Verse 2:

E------------------------------------------|
B------------------------------------------|
G------------------------------------------|
D-----7-4-10-9-----7-4-10-9----------------|
A-0-0----------0-0----------3-4-1----------|
E-0-0-5-6-8--7-0-0-5-6-8--7-3-4-1----------|
A-0-0----------0-0----------3-4-1----------|

E-----------------------------------------------------------|
B-----------------------------------------------------------|
G-----------------------------------------------------------|
D-----7-4-10-9----------------------------------------------|
A-0-0----------0-0------------------------------------------|
E-0-0-5-6-8--7-0-0------------------------------------------|
A-0-0----------0-0--2-5-2-5-2-5-2-5-1-4-1-4-1-4-1-4---------|
                     H P H P H P H P H P H P H P H

E------------------------------------------|
B------------------------------------------|
G------------------------------------------|
D-----7-4-10-9-----7-4-10-9----------------|
A-0-0----------0-0----------3-4-1----------|
E-0-0-5-6-8--7-0-0-5-6-8--7-3-4-1----------|
A-0-0----------0-0----------3-4-1----------|

E------------------------------------------|
B------------------------------------------|
G------------------------------------------|
D-----7-4-10-9-----7-4-10-9----------------|
A-0-0----------0-0----------3-4------------|
E-0-0-5-6-8--7-0-0-5-6-8--7-3-4------------|
A-0-0----------0-0----------3-4--5^--------|

Chorus:
E----------------------------------------------------|
B---------1------------------------------------------|
G---------1------------------------------------------|
D---------1------------------------------------------|
A-0-0-0-0------0-0-0---0-0-0-3-2-1-0-3-2-3-----------|
E-0-0-0-0------0-0-0---0-0-0-3-2-1-0-3-2-3-----------|
A-0-0-0-0------0-0-0---0-0-0-3-2-1-0-3-2-3-----------|

E------------------------------------------------|
B-------1----------------------------------------|
G-------1----------------------------------------|
D-------1----------------------------------------|
A-0-0-0------00-0----0-0-0-3-2-1-0-3-2-3---------|
E-0-0-0------00-0----0-0-0-3-2-1-0-3-2-3---------|
A-0-0-0------00-0----0-0-0-3-2-1-0-3-2-3---------|

E------------------------------------------------|
B-------1----------------------------------------|
G-------1----------------------------------------|
D-------1----------------------------------------|
A-0-0-0------00-0----0-0-0-3-2-1-0-3-2-3---------|
E-0-0-0------00-0----0-0-0-3-2-1-0-3-2-3---------|
A-0-0-0------00-0----0-0-0-3-2-1-0-3-2-3---------|

E-------------------------------------------------|
B-------1-----------------------------------------|
G-------1-----------------------------------------|
D-------1-----------------------------------------|
A-0-0-0------00-0----0-0-0-3-2-1-3--0-------------|
E-0-0-0------00-0----0-0-0-3-2-1-3--0-------------|
A-0-0-0------00-0----0-0-0-3-2-1-3--0-------------|


Bree part:
E-------------------------------------------------|
B-------------------------------------------------|
G-------------------------------------------------|
D-------------------------------------------------|
A-0-3-2-1-0-3-2-3-0-3-2-1-0-3-2-------------------|
E-0-3-2-1-0-3-2-3-0-3-2-1-0-3-2-3^----------------|
A-0-3-2-1-0-3-2-3-0-3-2-1-0-3-2-------------------|

E-------------------------------------------------|
B-------------------------------------------------|
G-------------------------------------------------|
D-------------------------------------------------|
A-0-3-2-1-0-3-2-3-0-3-2-1-0-3-2-3--0--------------|
E-0-3-2-1-0-3-2-3-0-3-2-1-0-3-2-3--0--------------|
A-0-3-2-1-0-3-2-3-0-3-2-1-0-3-2-3--0--------------|


Breakdown:
E--------------------------------------------------|   X2
B--------------------------------------------------|
G--------------------------------------------------|
D--------------------------------------------------| I couldn't figure out
A-2-2-2-2-2-2-2-2-2-2-2-2-2------------------------| how to put the rhythm
E-1-1-1-1-1-1-1-1-1-1-1-1-1------------------------| down on paper. Just
A-2-2-2-2-2-2-2-2-2-2-2-2-2------------------------| listen to it and you'll
                                                     get it easily.
After this part go straight back to Verse 2.

Verse 2:
E------------------------------------------|
B------------------------------------------|
G------------------------------------------|
D-----7-4-10-9-----7-4-10-9----------------|
A-0-0----------0-0----------3-4-1----------|
E-0-0-5-6-8--7-0-0-5-6-8--7-3-4-1----------|
A-0-0----------0-0----------3-4-1----------|

E-----------------------------------------------------------|
B-----------------------------------------------------------|
G-----------------------------------------------------------|
D-----7-4-10-9----------------------------------------------|
A-0-0----------0-0------------------------------------------|
E-0-0-5-6-8--7-0-0------------------------------------------|
A-0-0----------0-0--2-5-2-5-2-5-2-5-1-4-1-4-1-4-1-4---------|
                     H P H P H P H P H P H P H P H

E------------------------------------------|
B------------------------------------------|
G------------------------------------------|
D-----7-4-10-9-----7-4-10-9----------------|
A-0-0----------0-0----------3-4-1----------|
E-0-0-5-6-8--7-0-0-5-6-8--7-3-4-1----------|
A-0-0----------0-0----------3-4-1----------|

E------------------------------------------|
B------------------------------------------|
G------------------------------------------|
D-----7-4-10-9-----7-4-10-9----------------|
A-0-0----------0-0----------3-4------------|
E-0-0-5-6-8--7-0-0-5-6-8--7-3-4------------|
A-0-0----------0-0----------3-4--5^--------|


Bridge:
E------------------------------------------------|
B------------------------------------------------|
G------------------------------------------------|
D------------------------------------------------|X2  The Rhythm is not
A---------------------------------------3-1------|    exactly right but
E---------------------------------------3-1-3^---|    you'll get it when
A-0-0-0-0-0--0-0-0-0-0--0-0-0-0-0--0-0--3-1------|    listened to.


Outro/Breakdown:
E---------------------------------------------|
B---------------------------------------------|
G---------------------------------------------|
D---------------------------------------------| X2
A-2-2-2-2--2-2-2-2--2-2-2-2-2---3-1-----------|
E-1-1-1-1--1-1-1-1--1-1-1-1-1---3-1-3^--------|
A-2-2-2-2--2-2-2-2--2-2-2-2-2---3-1-----------|

E------------------------------------------|
B------------------------------------------|
G------------------------------------------|
D------------------------------------------| X4
A-0-0-0-00-0-0-0-0-0-00--3-1---------------|
E-0-0-0-00-0-0-0-0-0-00--3-1-3^------------|
A-0-0-0-00-0-0-0-0-0-00--3-1---------------|


E------------------------------------------|
B------------------------------------------|
G------------------------------------------|
D------------------------------------------|Finish off with this.
A-0-0-0-00-00-0----------------------------|
E-0-0-0-00-00-0----------------------------|
A-0-0-0-00-00-0----------------------------|
Добавлено: 12.03.2012
Другие материалы по этой песне:

Страница создана 26.02.2012
http://primanota.ru/chelsea-grin/disgrace-chords.htm
Привет, Гость.
Предлагаем пройти революционный курс по гитаре.
Подарок от PrimaNota.Ru, забирай!