PrimaNota.ru - самый крупный в мире бесплатный архив песенных текстов, аккордов, табулатур и нот


Celldweller - Good Luck Youre Fucked - бас-таба, видео

Регистрация Запомнить меня
Войти через:  Facebook Google Twitter Vk Yandex Mail.ru

Celldweller - Good Luck Youre Fucked - бас-таба, видео

Печатать
Просмотров: 224
-------------------------------------------------------------------------------
                             Good Luck (You're Fucked) - Celldweller
-------------------------------------------------------------------------------
Tabbed by: Andu Needle
E-mail: sulfur_in_my_lungs@yahoo.com

Intro and main riff:

G|-------------------------------------------------------|
D|-------------------------------------------------------|
A|-5-5-55------------------------3-34--------------------|
D|--------76~-666-66-35~-5-55-03~------------------------|(x4)

G|-------------------------------------------------------|
D|-------------------------------------------------------|
A|----------------5--------------------------------------|
D|-0353-0353-0353--765-----------------------------------|

Verse:

This one is odd. At the part with cyanide there is no bass.

"We all feel sorry for you now"

G|--------------------------------------------------------|
D|--------------------------------------------------------|
A|-------------3-33---------------------------------------|
D|-8-8-88-3-33--------------------------------------------|

G|--------------------------------------------------------|
D|--------------------------------------------------------|
A|----------------5---------------------------------------|
D|-0353-0353-0353--765------------------------------------|

At the part with "Your luck is sliding like a bat out of hell" there is no bass aswell!

G|--------------------------------------------------------|
D|--------------------------------------------------------|
A|-------------3-33---------------------------------------|
D|-8-8-88-3-33--------------------------------------------|

G|--------------------------------------------------------|
D|--------------------------------------------------------|
A|----------------5---------------------------------------|
D|-0353-0353-0353--765------------------------------------|

Chorus:

G|--------------------------------------------------------|
D|--------------------------------------------------------|
A|-5-5-55------------------------3-34---------------------|
D|--------76~-666-66-35~-5-55-03~-------------------------|(x4)

Post chorus:

G|--------------------------------------------------------|
D|--------------------------------------------------------|
A|----------------5---------------------------------------|
D|-0353-0353-0353--765------------------------------------|(x3)

G|--------------------------------------------------------|
D|--------------------------------------------------------|
A|--------------------------------------------------------|
D|-0353-0356----------------------------------------------|

Verse 2 is the same as the first one!
Chorus 2 is the same as the first one!
Post chorus 2 is the same as the first one, but you don't play the "-0353-0356-".

The last chorus is the same as the others!

Outro:

G|---------------------------------------------------------|
D|---------------------------------------------------------|
A|----------------5----------------------------------------|
D|-0353-0353-0353--765-------------------------------------|(x2)

G|---------------------------------------------------------|
D|---------------------------------------------------------|
A|---------------------------------------------------------|
D|-0353-0353-0~--------------------------------------------|
Добавлено: 21.10.2015
Другие материалы по этой песне:

Страница создана 21.10.2015
http://primanota.ru/celldweller/good-luck-youre-fucked-chords.htm
Привет, Гость.
Предлагаем пройти революционный курс по гитаре.
Подарок от PrimaNota.Ru, забирай!