PrimaNota.ru - самый крупный в мире бесплатный архив песенных текстов, аккордов, табулатур и нот


Celldweller - Precious One - таба, видео

Регистрация Запомнить меня
Войти через:  Facebook Google Twitter Vk Yandex Mail.ru

Celldweller - Precious One - таба, видео

Печатать
Просмотров: 216
Уроки эстрадного вокала в Санкт-Петербурге
-------------------------------------------------------------------------------
                             Precious One - Celldweller
-------------------------------------------------------------------------------
Tabbed by: joshuarg15
E-mail: josh98@wildblue.net

Tuning: Drop A# (A# F A# D# G C)

Hey! I hope this tab does the song justice, and if you see any corrections feel free to send them!
This is my first guitar tab, by the way!

Intro:
C |--------------------------------------------------------------------------------------|
G |--------------------------------------------------------------------------------------|
D#|--------------------------------------------------------------------------------------|
A#|10-12\8-10--\5--------10-12\7-8--\3-----------10-12\8-10--\5--------10-12\7-8--\3----0|
F |10-12\8-10--\5--------10-12\7-8--\3-----------10-12\8-10--\5--------10-12\7-8--\3----0|
A#|10-12\8-10--\5--------10-12\7-8--\3-----------10-12\8-10--\5--------10-12\7-8--\3----0|

Right before the pre-chorus, a guitar fades in with this note:

C |-------------------------------|
G |-------------------------------|
D#|-------------------------------|
A#|-------------------------------|
F |-------------------------------|
A#|12-----------------------------|

Pre-Chorus:
C |----------------------------|
G |----------------------------|
D#|----------------13-13--12-12|
A#|12-12-12-12-----13-13--12-12|
F |12-12-12-12-----11-11--10-10|
A#|12-12-12-12-----------------|(x2)

Chorus:
C |-----------------------------------------------------------------------------------|
G |-----------------------------------------------------------------------------------|
D#|-----------------------------------------------------------------------------------|
A#|-----------------------------------------------------------------------------------|
F |-----------------------------------------------------------------------------------|
A#|12-12-12-12-12-12-12-12-12-12-12-12\10-10-10-10\6-6-6-6-6-6-6-6\3-3-3-3/10-10-10-10|(x2)

C |---------------------------------------------------------------------------------------|
G |---------------------------------------------------------------------------------------|
D#|---------------------------------------------------------------------------------------|
A#|---------------------------------------------------------------------------------------|
F |---------------------------------------------------------------------------------------|
A#|12-12-12-12-12-12-12-12-12-12-12-12\10-10-10-10\5-5-5-5-5-5-5-5/10-10-10-10-10-10-10-10|

C |--------------------------------------------------------------|
G |--------------------------------------------------------------|
D#|--------------------------------------------------------------|
A#|--------------------------------------------------------------|
F |--------------------------------------------------------------|
A#|\8-8-8-8-8-8-8-8\7-7-7-7-7-7-7-7\5-5-5-5-5-5-5-5\3-3-3-3-3-3-3|

Repeat Intro (But without the open note at the end)

Bridge: (...to your new life!)

C |---------------------------------------------------------------------------------------|
G |---------------------------------------------------------------------------------------|
D#|---------------------------------------------------------------------------------------|
A#|---------------------------------------------------------------------------------------|
F |---------------------------------------------------------------------------------------|
A#|12-12-12-12-12-12-12-12\10-10-10-10-10-10-10-10\6-6-6-6-6-6-6-6/10-10-10-10-10-10-10-10|

C |-----------------------------------------------------------------------------------|
G |-----------------------------------------------------------------------------------|
D#|-----------------------------------------------------------------------------------|
A#|-----------------------------------------------------------------------------------|
F |-----------------------------------------------------------------------------------|
A#|12-12-12-12-12-12-12-12\10-10-10-10-10-10-10-10\6-6-6-6-6-6-6-6\3-3-3-3/10-10-10-10|

C |---------------------------------------------------------------------------------------|
G |---------------------------------------------------------------------------------------|
D#|---------------------------------------------------------------------------------------|
A#|---------------------------------------------------------------------------------------|
F |---------------------------------------------------------------------------------------|
A#|12-12-12-12-12-12-12-12\10-10-10-10-10-10-10-10\5-5-5-5-5-5-5-5/10-10-10-10-10-10-10-10|

C |----------------------------------------|
G |----------------------------------------|
D#|----------------------------------------|
A#|----------------------------------------|
F |----------------------------------------|
A#|\8-8-8-8-8-8-8-8\7-7-7-7-7-7-7-7\5-5-5-5|

Repeat the intro, and repeat the open note at the end a few times at the end of the song!


************************************

| /   slide up
| \   slide down
| h   hammer-on
| p   pull-off
| ~   vibrato
| +   harmonic
| x   Mute note
| b   Bend
| pb  Pre-bend
| br  Bend release
| pbr Pre-bend release
| brb Bend release bend 

************************************
Добавлено: 08.06.2016
Другие материалы по этой песне:
  • Аккорды и текст

Страница создана 08.06.2016
http://primanota.ru/celldweller/precious-one-chords.htm
Привет, Гость.
Предлагаем пройти революционный курс по гитаре.
Подарок от PrimaNota.Ru, забирай!