PrimaNota.ru - самый крупный в мире бесплатный архив песенных текстов, аккордов, табулатур и нот


Casualties - Fallen Heros - таба, видео

Регистрация Запомнить меня
Войти через:  Facebook Google Twitter Vk Yandex Mail.ru

Casualties - Fallen Heros - таба, видео

Печатать
Просмотров: 103
Song: Fallen Heros
Artist: The Casualties
Tabbed by: kungfu_action
bloodlet29@hotmail.com


Intro/Bridge
e|------------------------------------------------------------------|
B|------------------------------------------------------------------|
G|------------------------------------------------------------------|
D|------------------------------------------------------------------|
A|-7-7-7-7-7-7-7-7-7-7-7-7-7-7-7-7-7-7-7-7-7-7-7-7-7-7-7-7-7-7-7----|
E|-5-5-5-5-5-5-5-5-5-5-5-5-5-5-5-5-5-5-5-5-5-5-5-5-5-5-5-5-5-5-5----|

Verse A
e|-----------------------------|
B|-----------------------------|
G|-----------------------------|
D|-----------------------------|
A|-7-7-7-7-7-7-7-10-9-10-12----|
E|-5-5-5-5-5-5-5--8-7--8-10----|

Verse B
e|----------------------------------------------------------------------------------|
B|----------------------------------------------------------------------------------|
G|----------------------------------------------------------------------------------|
D|----------------------------------------------------------------------------------|
A|-7-7-7-7-7-7-7-10-9-10-12-10-9-12-12-12-12-12-12-12-12-12-12-12-12-12-12--10-9----|
E|-5-5-5-5-5-5-5--8-7--8-10--8-7-10-10-10-10-10-10-10-10-10-10-10-10-10-10---8-7----|

Chorus
e|----------------------------------------------------------|
B|----------------------------------------------------------|
G|----------------------------------------------------------|
D|-------------10-10-10-10-10-10-12-12-10-10----------------|
A|-7-7-7-7-7-7--8--8--8--8--8--8-10-10--8--8-10-10--10-9----|
E|-5-5-5-5-5-5--------------------------------8--8---8-7----|

Verse C
e|----------------------------|
B|----------------------------|
G|----------------------------|
D|----------------------------|
A|-7-7-7-7-7-7-10-10-12-12----|
E|-5-5-5-5-5-5--8--8-10-10----|

Verse D 
e|--------------------------------|
B|--------------------------------|
G|--------------------------------|
D|--------------------------------|
A|-7-7-7-7-7-7-10-9-10-12-10-9----|
E|-5-5-5-5-5-5--8-7--8-10--8-7----|

Verse E
e|------------------------------|
B|------------------------------|
G|------------------------------|
D|------------------------------|
A|-7-7-7-7-7-7-10-10-12-10-9----|
E|-5-5-5-5-5-5--8--8-10--8-7----|

Outro
e|------------------------------------|
B|------------------------------------|
G|------------------------------------|
D|-------------5-4-5-7-5-4---5-4-2----|
A|-7-7-7-7-7-7-3-2-3-5-3-2---3-2-0----|
E|-5-5-5-5-5-5------------------------|


Order:
Intro 
Verse A (3X)
Verse B
Chorus (2X)
Verse C
Verse D
Verse C (3X)
Verse E
Chorus (2X)
Verse C
Verse D
Verse C (3X)
Verse E
Chorus (2X)
Intro/Bridge 
Verse A
Verse D
Verse A
Verse B
Chorus (2X)
Verse C
Outro





Добавлено: 27.09.2013
Другие материалы по этой песне:
  • Аккорды и текст

Страница создана 27.09.2013
http://primanota.ru/casualties/fallen-heros-chords.htm
Привет, Гость.
Предлагаем пройти революционный курс по гитаре.
Подарок от PrimaNota.Ru, забирай!