PrimaNota.ru - самый крупный в мире бесплатный архив песенных текстов, аккордов, табулатур и нот


Carpenters - This Masquerade - текст песни, бас-таба, видео

Регистрация Запомнить меня
Войти через:  Facebook Google Twitter Vk Yandex Mail.ru

Carpenters - This Masquerade - текст песни, бас-таба, видео

Печатать
Просмотров: 292
Авторы музыки: Leon Russell
Авторы текста: Leon Russell
This Masquerade.btab
Carpenters

Basstab by Jan Bjorklund, Finland; 
jani_bjorklund@yahoo.se 
You are welcome to request for basstabs or standard notation!
Bienvenidos a pedirme transcripciones para el bajo!



Tuning : E A D G 	Time Signature: 4/4

 tempo 110       |       |        |       |       |       |        
|--------------------------------|--------------------------------|
|--------------------------------|--------------------------------|
|8-----------8---8-----------8---|6-----------6---6-----------6---|
|--------------------------------|--------------------------------|

 |       |       |       |        |       |       |       |        
|--------------------------------|--------------------------------|
|--------------------------------|--------------------------------|
|4-----------4---4-----------4---|5-----------5---5-----------5---|
|--------------------------------|--------------------------------|

 |       |       |       |        |       |       |       |        
|--------------------------------|--------------------------------|
|5-----------5---------------4/3-|--------------------------------|
|--------------------------------|3-----------3---------------5/7-|
|--------------------------------|--------------------------------|

 |       |       |       |        |       |       |       |        
|------------10------------------|--------------------------------|
|--------------------10------8---|--------------------------------|
|8-------------------------------|--------------------------------|
|--------------------------------|------------------------6h--8---|

 |       |       |       |        |       |       |       |        
|--------------------------------|--------------------------------|
|--------------------10------8---|--------------------------------|
|8-------------------------------|--------------------------------|
|--------------------------------|--------------------------------|

 |       Are we really   |        happy with this |       |        
|--------------------------------|--------------------------------|
|--------------------------------|--------------------------------|
|8-----------8---8---------------|8-----------8---8---------------|
|--------------------------------|--------------------------------|

 lonely game we  |       |        |play   |       |       |        
|--------------------------------|--------------------------------|
|--------------------------------|8-----------8---8---------------|
|8-----------8---8---------------|--------------------------------|
|--------------------------------|--------------------------------|

 |       Looking for the |        right words to  |       |        
|--------------------------------|--------------------------------|
|--------------------------------|--------------------------------|
|8-----------8---8-----------6---|4-----------4---4---------------|
|--------------------------------|--------------------------------|

 say     |       |       |        |       |       |       |        
|--------------------------------|--------------------------------|
|--------------------------------|--------------------------------|
|3-----------3---3---------------|3-----------3---3---------------|
|--------------------------------|--------------------------------|

 Searching but not       |        finding under-  |       |        
|--------------------------------|--------------------------------|
|--------------------------------|--------------------------------|
|8-----------8---8---------------|8-----------8---8---------------|
|--------------------------------|--------------------------------|

 standing|any-   |       |        way     |       |       | we're  
|--------------------------------|--------------------------------|
|--------------------------------|--------------------------------|
|8-----------8---8---------------|--------------------------------|
|--------------------------------|6-----------6---6---------------|

 lost in this    |       |        masque- |       |       |        
|--------------------------------|--------------------------------|
|--------------------------------|--------------------------------|
|4-----------4---4---------------|3-----------3---3---------------|
|--------------------------------|--------------------------------|

 rade    |       |       |        |       |       |       |        
|--------------------------------|------------10------------------|
|3-----------3---3---------------|--------------------10------8---|
|----------------------------3h5/|8-------------------------------|
|--------------------------------|--------------------------------|

 Both afraid to  |       |        say we're just to       |        
|------------------------8-------|--------------------------------|
|------------8-------------------|6-------------------------------|
|6-------------------------------|------------6-------------------|
|--------------------------------|------------------------8-------|

 far away|       |       |        |       |       |       from     
|--------------------------------|--------------------------------|
|------------3-----------6-------|8-----------------------8-------|
|4-------------------------------|------------8-------------------|
|--------------------------------|--------------------------------|

 being close to- |       |        gether from the |       |        
|--------------------------------|----------------4---------------|
|------------------------8-------|6-------------------------------|
|6-----------6-------------------|--------------------------------|
|--------------------------------|--------------------------------|

 start   |       |       |        |       |       |       We       
|--------------------------------|--------------------------------|
|----------------------------6---|----------------------------6---|
|4-----------4---4---------------|4-----------4-------------------|
|--------------------------------|--------------------------------|

 tried to|talk it|       |        over but|the    |       |        
|--------------------------------|--------------------------------|
|--------------------------------|5-----------5---5---------------|
|5-----------5-------------------|--------------------------------|
|--------------------------------|--------------------------------|

 words got in the|       |        way     |       |       We're    
|--------------------------------|--------------------------------|
|--------------------------------|----------------------------5---|
|3-----------3---3---------------|3-----------3---3---------------|
|--------------------------------|--------------------------------|

 lost inside     |       |        |       |       |       this     
|------------10------------------|------------7-------------------|
|8-------------------8-------6---|5-------------------5-------5---|
|--------------------------------|--------------------------------|
|--------------------------------|--------------------------------|

 |       lonely game we  |        play    |       |       |        
|5-------------------------------|--------------------------------|
|----------------------------5---|--------------------------------|
|--------------------------------|3-------------------------------|
|--------------------------------|--------------------------------|

 Thoughts of leaving     |        disapare|each   |       |        
|--------------------------------|--------------------------------|
|--------------------------------|--------------------------------|
|8-----------8---8-----------8---|8-----------8---8-----------8---|
|--------------------------------|--------------------------------|

 time I see your |       |        eyes    |       |       |        
|--------------------------------|--------------------------------|
|--------------------------------|--------and so on......---------|
|8-----------8---8-----------8---|--------------------------------|
|--------------------------------|6-----------6---6-----------8---|

 
Transcribe! 6.0 transcription http://www.seventhstring.demon.co.uk/
Created with TablEdit http://www.tabledit.com/
http://www.geocities.com/jani_bjorklund/janis.html?1058405404377

     
Добавлено: 27.07.2013
Другие материалы по этой песне:
  • Аккорды и текст

Страница создана 16.04.2012
http://primanota.ru/carpenters/this-masquerade-chords.htm
Привет, Гость.
Предлагаем пройти революционный курс по гитаре.
Подарок от PrimaNota.Ru, забирай!