PrimaNota.ru - самый крупный в мире бесплатный архив песенных текстов, аккордов, табулатур и нот


Carpenters - Masquerade - бас-таба, видео

Регистрация Запомнить меня
Войти через:  Facebook Google Twitter Vk Yandex Mail.ru

Carpenters - Masquerade - бас-таба, видео

Печатать
Просмотров: 112
carpenters_masquerade

TablEdited by Jan Bjorklund    jani_bjorklund@yahoo.se>
You are welcome to request for tabs!
Fingering and positions as suggested by TablEdit, please use common sense.


TablEdited by Jan Bjorklund
Tuning : E A D G 	Time Signature: 4/4

  |       |       |       |        |       |       |       |
|--------------------------------|--------------------------------|
|3-----------3-------------------|1-----------1-------------------|
|--------------------------------|--------------------------------|
|--------------------------------|--------------------------------|

  |       |       |       |        |       |       |       |
|--------------------------------|--------------------------------|
|--------------------------------|0-----------0-------------------|
|4-----------4-------------------|--------------------------------|
|--------------------------------|--------------------------------|

  |       |       |       |        |       |       |       |
|0-----------0-------------------|--------------------------------|
|--------------------------------|--------------------------------|
|--------------------------------|3-----------3-------------------|
|--------------------------------|--------------------------------|

  |       |       |       |        |       |       |       |
|------------10------5-------3---|--------------------------------|
|3-------------------------------|--------------------------------|
|--------------------------------|--------------------------------|
|--------------------------------|------------------------1-------|

  |       |       |       |        |       |       |       |
|------------10------5-------3---|--------------------------------|
|3-------------------------------|--------------------------------|
|--------------------------------|--------------------------------|
|--------------------------------|--------------------------------|

  |       |       |       |        |       |       |       |
|--------------------------------|--------------------------------|
|3-----------3-------------------|3-----------3-------------------|
|--------------------------------|--------------------------------|
|--------------------------------|--------------------------------|

  |       |       |       |        |       |       |       |
|--------------------------------|--------------------------------|
|3-----------3-------------------|--------------------------------|
|--------------------------------|1-----------1-------------------|
|--------------------------------|--------------------------------|

  |       |       |       |        |       |       |       |
|--------------------------------|--------------------------------|
|3-----------3-------------------|--------------------------------|
|--------------------------------|4-----------4-------------------|
|--------------------------------|--------------------------------|

  |       |       |       |        |       |       |       |
|--------------------------------|--------------------------------|
|--------------------------------|--------------------------------|
|3-----------3-------------------|3-----------3-------------------|
|--------------------------------|--------------------------------|

  |       |       |       |        |       |       |       |
|--------------------------------|--------------------------------|
|3-----------3-------------------|3-----------3-------------------|
|--------------------------------|--------------------------------|
|--------------------------------|--------------------------------|

  |       |       |       |        |       |       |       |
|--------------------------------|--------------------------------|
|3-----------3-------------------|--------------------------------|
|--------------------------------|1-----------1-------------------|
|--------------------------------|--------------------------------|

  |       |       |       |        |       |       |       |
|--------------------------------|--------------------------------|
|--------------------------------|--------------------------------|
|4-----------4-------------------|3-----------3-------------------|
|--------------------------------|--------------------------------|

  |       |       |       |        |       |       |       |
|--------------------------------|------------10------5-----------|
|3-----------3-------------------|3-------------------------------|
|----------------------------1---|--------------------------------|
|--------------------------------|--------------------------------|

  |       |       |       |        |       |       |       |
|------------3-----------8-------|1-------------------------------|
|1-------------------------------|------------1-------------------|
|--------------------------------|------------------------3-------|
|--------------------------------|--------------------------------|

  |       |       |       |        |       |       |       |
|------------------------1-------|3-----------------------3-------|
|------------3-------------------|------------3-------------------|
|4-------------------------------|--------------------------------|
|--------------------------------|--------------------------------|

  |       |       |       |        |       |       |       |
|------------------------3-------|1---------------4---------------|
|1-----------1-------------------|--------------------------------|
|--------------------------------|--------------------------------|
|--------------------------------|--------------------------------|

  |       |       |       |        |       |       |       |
|----------------------------1---|--------------------------------|
|--------------------------------|--------------------------------|
|4-----------4-------------------|4-----------4-------------------|
|--------------------------------|--------------------------------|

  |       |       |       |        |       |       |       |
|--------------------------------|0-----------0-------------------|
|0-----------0-------------------|--------------------------------|
|--------------------------------|--------------------------------|
|--------------------------------|--------------------------------|

  |       |       |       |        |       |       |       |
|--------------------------------|--------------------------------|
|--------------------------------|--------------------------------|
|3-----------3-------------------|3-----------3-------------------|
|--------------------------------|--------------------------------|

  |       |       |       |        |       |       |       |
|3-----------10------3-----------|0-----------7-------0-----------|
|--------------------------------|--------------------------------|
|--------------------------------|--------------------------------|
|--------------------------------|--------------------------------|

  |       |       |       |        |       |       |       |
|5---------------------------0---|--------------------------------|
|--------------------------------|--------------------------------|
|--------------------------------|3-------------------------------|
|--------------------------------|--------------------------------|

  |       |       |       |        |       |       |       |
|--------------------------------|--------------------------------|
|3-----------3-------------------|3-----------3-------------------|
|--------------------------------|--------------------------------|
|--------------------------------|--------------------------------|

  |       |       |       |        |       |       |       |
|--------------------------------|--------------------------------|
|3-----------3-------------------|--------------------------------|
|--------------------------------|1-----------1-------------------|
|--------------------------------|--------------------------------|

  |       |       |       |        |       |       |       |
|--------------------------------|--------------------------------|
|3-----------3-------------------|--------------------------------|
|--------------------------------|4-----------4-------------------|
|--------------------------------|--------------------------------|

  |       |       |       |        |       |       |       |
|--------------------------------|--------------------------------|
|--------------------------------|--------------------------------|
|3-----------3---3-----------3---|3---3-------3---3---3-----------|
|--------------------------------|--------------------------------|

  |       |       |       |        |       |       |       |
|--------------------------------|--------------------------------|
|3-----------3-------------------|3-----------3-------------------|
|--------------------------------|--------------------------------|
|--------------------------------|--------------------------------|

  |       |       |       |        |       |       |       |
|--------------------------------|--------------------------------|
|3-----------3-------------------|--------------------------------|
|--------------------------------|1-----------1-------------------|
|--------------------------------|--------------------------------|

  |       |       |       |        |       |       |       |
|--------------------------------|--------------------------------|
|--------------------------------|--------------------------------|
|4-----------4-------------------|3-----------3-------------------|
|--------------------------------|--------------------------------|

  |       |       |       |        |       |       |       |
|------------10------5-------3---|--------------------------------|
|3-------------------------------|--------------------------------|
|--------------------------------|--------------------------------|
|--------------------------------|------------------------1-------|

  |       |       |       |        |       |       |       |
|------------10------5-------3---|--------------------------------|
|3-------------------------------|--------------------------------|
|--------------------------------|--------------------------------|
|--------------------------------|--------------------------------|

  |       |       |       |        |       |       |       |
|--------------------------------|--------------------------------|
|3-----------3-------------------|3-----------3-------------------|
|--------------------------------|--------------------------------|
|--------------------------------|--------------------------------|

  |       |       |       |        |       |       |       |
|--------------------------------|3-----------3-------------------|
|3-----------3-------------------|--------------------------------|
|--------------------------------|--------------------------------|
|--------------------------------|--------------------------------|

  |       |       |       |        |       |       |       |
|--------------------------------|--------------------------------|
|3-----------3-------------------|--------------------------------|
|--------------------------------|4-----------4-------------------|
|--------------------------------|--------------------------------|

  |       |       |       |        |       |       |       |
|--------------------------------|--------------------------------|
|--------------------------------|--------------------------------|
|3---------------3---------------|3---------------3-------3-------|
|--------------------------------|--------------------------------|

  |       |       |       |        |       |       |       |
|--------------------------------|--------------------------------|
|3-----------3-------------------|3-----------3-------------------|
|--------------------------------|--------------------------------|
|--------------------------------|--------------------------------|

  |       |       |       |        |       |       |       |
|--------------------------------|--------------------------------|
|3-----------3-------------------|--------------------------------|
|--------------------------------|1-----------1-------------------|
|--------------------------------|--------------------------------|

  |       |       |       |        |       |       |       |
|--------------------------------|--------------------------------|
|--------------------------------|--------------------------------|
|4-----------4-------------------|3-----------3-------------------|
|--------------------------------|--------------------------------|

  |       |       |       |        |       |       |       |
|--------------------------------|--------------------------------|
|3-----------3-------------------|3-------------------------------|
|----------------------------1---|--------------------------------|
|--------------------------------|--------------------------------|

  |       |       |       |        |       |       |       |
|------------3---------------0---|1-------------------------------|
|1-------------------------------|------------1-------------------|
|--------------------------------|----------------------------3---|
|--------------------------------|--------------------------------|

  |       |       |       |        |       |       |       |
|------------1---------------1---|3---------------------------3---|
|--------------------------------|------------3-------------------|
|4-------------------------------|--------------------------------|
|--------------------------------|--------------------------------|

  |       |       |       |        |       |       |       |
|--------------------------------|1---------------4---------------|
|1-----------1-------------------|--------------------------------|
|--------------------------------|--------------------------------|
|--------------------------------|--------------------------------|

  |       |       |       |        |       |       |       |
|--------------------------------|--------------------------------|
|--------------------------------|--------------------------------|
|4---------------4---------------|4-----------4-----------4-------|
|--------------------------------|--------------------------------|

  |       |       |       |        |       |       |       |
|--------------------------------|0-----------0-------------------|
|0---------------0---------------|--------------------------------|
|--------------------------------|--------------------------------|
|--------------------------------|--------------------------------|

  |       |       |       |        |       |       |       |
|--------------------------------|--------------------------------|
|--------------------------------|--------------------------------|
|3---------------3---------------|3---------------3---------------|
|--------------------------------|--------------------------------|

  |       |       |       |        |       |       |       |
|3-----------10------3-----------|0---7---12--------------0-------|
|--------------------------------|------------0-------------------|
|--------------------------------|--------------------------------|
|--------------------------------|--------------------------------|

  |       |       |       |        |       |       |       |
|5---------------------------0---|--------------------------------|
|--------------------------------|--------------------------------|
|--------------------------------|3-------------------------------|
|--------------------------------|--------------------------------|

  |       |       |       |        |       |       |       |
|--------------------------------|--------------------------------|
|3-----------3-------------------|3-----------3-------------------|
|--------------------------------|--------------------------------|
|--------------------------------|--------------------------------|

  |       |       |       |        |       |       |       |
|--------------------------------|--------------------------------|
|3-----------3-------------------|--------------------------------|
|--------------------------------|1-----------1-------------------|
|--------------------------------|--------------------------------|

  |       |       |       |        |       |       |       |
|--------------------------------|--------------------------------|
|3-----------3-------------------|--------------------------------|
|--------------------------------|4-----------4-------------------|
|--------------------------------|--------------------------------|

  |       |       |       |        |       |       |       |
|--------------------------------|--------------------------------|
|--------------------------------|--------------------------------|
|3-----------3---3-----------3---|3---3-------3---3---3-----------|
|--------------------------------|--------------------------------|

  |       |       |       |        |       |       |       |
|--------------------------------|--------------------------------|
|3-----------3-------------------|3-----------3-------------------|
|--------------------------------|--------------------------------|
|--------------------------------|--------------------------------|

  |       |       |       |        |       |       |       |
|--------------------------------|--------------------------------|
|3-----------3-------------------|--------------------------------|
|--------------------------------|1-----------1-------------------|
|--------------------------------|--------------------------------|

  |       |       |       |        |       |       |       |
|--------------------------------|--------------------------------|
|--------------------------------|--------------------------------|
|4-----------4-------------------|3-----------3-------------------|
|--------------------------------|--------------------------------|

  |       |       |       |        |       |       |       |
|--------------------------------|--------------------------------|
|3-------------------------------|1-------------------------------|
|--------------------------------|--------------------------------|
|--------------------------------|--------------------------------|

  |       |       |       |        |       |       |       |
|--------------------------------|--------------------------------|
|--------------------------------|--------------------------------|
|4-------------------------------|3-------------------------------|
|--------------------------------|--------------------------------|

  |       |       |       |        |       |       |       |
|--------------------------------|--------------------------------|
|3-----------3-------------------|1-----------1-------------------|
|--------------------------------|--------------------------------|
|--------------------------------|--------------------------------|

  |       |       |       |        |       |       |       |
|--------------------------------|--------------------------------|
|--------------------------------|0-----------0-------------------|
|4-----------4-------------------|--------------------------------|
|--------------------------------|--------------------------------|

  |       |       |       |        |       |       |       |
|1-----------1-------------------|--------------------------------|
|--------------------------------|--------------------------------|
|--------------------------------|3-----------3-------------------|
|--------------------------------|--------------------------------|

  |       |       |       |        |       |       |       |
|--------------------------------|3---------------3---------------|
|3---------------3---------------|--------------------------------|
|--------------------------------|--------------------------------|
|--------------------------------|--------------------------------|

  |       |       |       |        |       |       |       |
|--------------------------------|----------------3---------------|
|3---------------3---------------|--------------------------------|
|--------------------------------|--------------------------------|
|--------------------------------|--------------------------------|

  |       |       |       |        |       |       |       |
|----------------------------3---|------------3-----------3-------|
|3---------------3---3-----------|--------------------------------|
|--------------------------------|--------------------------------|
|--------------------------------|--------------------------------|

  |       |       |       |        |       |       |       |
|--------------------------------|3---------------3---3-------3---|
|3---------------3---3-----------|--------------------------------|
|--------------------------------|--------------------------------|
|--------------------------------|--------------------------------|

  |       |       |       |        |       |       |       |
|--------------------------------|3---------------3---3-------3---|
|3---------------3---3-----------|--------------------------------|
|--------------------------------|--------------------------------|
|--------------------------------|--------------------------------|

  |       |       |       |        |       |       |       |
|--------------------------------|3-----------3-------3-------3---|
|3---------------3-----------3---|--------------------------------|
|--------------------------------|--------------------------------|
|--------------------------------|--------------------------------|

  |       |       |       |        |       |       |       |
|----------------------------3---|3---------------3-----------3---|
|3---------------3---------------|--------------------------------|
|--------------------------------|--------------------------------|
|--------------------------------|--------------------------------|

  |       |       |       |        |       |       |       |
|--------------------------------|3-----------3-------3-------3---|
|3---------------3-----------3---|--------------------------------|
|--------------------------------|--------------------------------|
|--------------------------------|--------------------------------|




Created with TablEdit http://www.tabledit.com/

     
Добавлено: 11.11.2013
Другие материалы по этой песне:
  • Аккорды и текст

Страница создана 24.09.2013
http://primanota.ru/carpenters/masquerade-chords.htm
Привет, Гость.
Предлагаем пройти революционный курс по гитаре.
Подарок от PrimaNota.Ru, забирай!