PrimaNota.ru - самый крупный в мире бесплатный архив песенных текстов, аккордов, табулатур и нот


Carnifex - In Coalesce With Filth And Faith - текст песни, таба, видео

Регистрация Запомнить меня
Войти через:  Facebook Google Twitter Vk Yandex Mail.ru

Carnifex - In Coalesce With Filth And Faith - текст песни, таба, видео

Печатать
Просмотров: 256
Уроки эстрадного вокала в Санкт-Петербурге
    sorry i dont have all of it at the moment but heres some riffs
to enjoy for now haha this is in drop A tuning played on 7 string guitar um plz rate and 
enjoy!

p-pull off
t-tremolo

intro
|--------------------------------------------------------------------------|
|--------------------------------------------------------------------------|
|--------------------------------------------------------------------------|
|--------------------------------------------------------------------------|
|--------------------------------------------------------------------------|
|--------------------------------------------------------------5t-8t-7t-4t-|
|--000--888--777--000--555--444--555--777--000--888--777--000--------------|


|--------------------------------------------------------------------------|
|--------------------------------------------------------------------------|
|--------------------------------------------------------------------------|
|--------------------------------------------------------------------------|
|--------------------------------------------------------------------------|
|--------------------------------------------------------------------------|
|--000--888--777--000--555--444--555--777--000--888--777--000--5t-8t-7t-4t-|


|--------------------------------------------------------------------------|
|--------------------------------------------------------------------------|
|--------------------------------------------------------------------------|
|--------------------------------------------------------------------------|
|--------------------------------------------------------------------------|
|--------------------------------------------------------------5t-8t-7t-4t-|
|--000--888--777--000--555--444--555--777--000--888--777--000--------------|


|--------------------------------------------------------------------------|
|--------------------------------------------------------------------------|
|--------------------------------------------------------------------------|
|--------------------------------------------------------------------------|
|--------------------------------------------------------------------------|
|--------------------------------------------------------------5t-8t-7t-4t-|
|--000--888--777--000--555--444--555--777--000--888--777--000--------------|


|--------------------------------------------------------------------------|
|--------------------------------------------------------------------------|
|--------------------------------------------------------------------------|
|--------------------------------------------------------------------------|
|--------------------------------------------------------------------------|
|--------------------------------5t-8t-7t-4t-------------------------------|
|--000--000--888--777--000--000--------------------------------------------|


|--------------------------------------------------------------------------|
|--------------------------------------------------------------------------|
|--------------------------------------------------------------------------|
|--------------------------------------------------------------------------|
|--------------------------------------------------------------------------|
|--------------------------------5t-8t-7t-4t-------------------------------|
|--000--000--555--444--000--000--------------------------------------------|


|--------------------------------------------------------------------------|
|--------------------------------------------------------------------------|
|--------------------------------------------------------------------------|
|--------------------------------------------------------------------------|
|--------------------------------------------------------------------------|
|------8-----7-----5-----4-----5-----7-----8-------------------------------|
|--00-----0-----0-----0-----0-----0-----0----------------------------------|


|--------------------------------------------------------------------------|
|--------------------------------------------------------------------------|
|--------------------------------------------------------------------------|
|--------------------------------------------------------------------------|
|--------------------------------------------------------------------------|
|------8-----7-----5-----4-----5-----7-----8p7-----------------------------|
|--00-----0-----0-----0-----0-----0-----0----------------------------------|


|--------------------------------------------------------------------------|
|--------------------------------------------------------------------------|
|--------------------------------------------------------------------------|
|--------------------------------------------------------------------------|
|--------------------------------------------------------------------------|
|--8t-7t-5t-4t-5t-7t-8t-7t-------------------------------------------------|
|--------------------------------------------------------------------------|

|--------------------------------------------------------------------------|
|--------------------------------------------------------------------------|
|--------------------------------------------------------------------------|
|--------------------------------------------------------------------------|
|--------------------------------------------------------------------------|
|------8-----7-----5-----4-----5-----7-----8-------------------------------|
|--00-----0-----0-----0-----0-----0-----0----------------------------------|


|--------------------------------------------------------------------------|
|--------------------------------------------------------------------------|
|--------------------------------------------------------------------------|
|--------------------------------------------------------------------------|
|--------------------------------------------------------------------------|
|------8-----7-----5-----4-----5-----7-----8p7-----------------------------|
|--00-----0-----0-----0-----0-----0-----0----------------------------------|


|--------------------------------------------------------------------------|
|--------------------------------------------------------------------------|
|--------------------------------------------------------------------------|
|--------------------------------------------------------------------------|
|--------------------------------------------------------------------------|
|--8t-7t-5t-4t-5t-7t-8t-7t-------------------------------------------------|
|--------------------------------------------------------------------------|


|--------------------------------------------------------------------------|
|--------------------------------------------------------------------------|
|--------------------------------------------------------------------------|
|--------------------------------------------------------------------------|
|--------------------------------------------------------------------------|
|------------5------------4----------------------8------------7-------4----|
|--000--000-----000--000-----000--000--000--000-----000--000-----000-------|


|--------------------------------------------------------------------------|
|--------------------------------------------------------------------------|
|--------------------------------------------------------------------------|
|--------------------------------------------------------------------------|
|--------------------------------------------------------------------------|
|------------5------------4----------------------8------------7-------4----|
|--000--000-----000--000-----000--000--000--000-----000--000-----000-------|

             thats it for now dont forget to rate and comment!
                                   :-)
Добавлено: 18.03.2012
Другие материалы по этой песне:

Страница создана 18.03.2012
http://primanota.ru/carnifex/in-coalesce-with-filth-and-faith-chords.htm
Привет, Гость.
Предлагаем пройти революционный курс по гитаре.
Подарок от PrimaNota.Ru, забирай!