PrimaNota.ru - самый крупный в мире бесплатный архив песенных текстов, аккордов, табулатур и нот


Carnifex - Dead In My Arms - текст песни, таба, видео

Регистрация Запомнить меня
Войти через:  Facebook Google Twitter Vk Yandex Mail.ru

Carnifex - Dead In My Arms - текст песни, таба, видео

Печатать
Просмотров: 235
i did this so i can learn this at home cause i dont have guitar pro but it is the
same thing as the guitar pro of this song

-----------------------------------------------------------------------------|
-----------------------------------------------------------------------------|
-----------------------------------------------------------------------------|
------------------------------------------------------------8888-------------|
----------8888----8888777788887777--------10101010----101010----101010108888-|
--00007777----7777----------------88888888--------8888-----------------------|

-------------------------------------------|
-------------------------------------------|
-------------------------------------------|
-----------------------------7-------------|
-----------8-----7-----8----------8-----7--|
--000-000-----0-----0-----0-----0----0-----|
  ... ...     .     .     .     .    .


-----------------------------------------------|
-----------------------------------------------|
-----------------------------------------------|
-------------------------------8---------------|
-----------10-----8-----10-----------10-----8--|
--888-888------8-----8------8-----8------8-----|
  ... ...      .     .      .     .      .

-------------------------------------------|
-------------------------------------------|
-------------------------------------------|
-----------------------------7-------------|
-----------8-----7-----8----------8-----7--|
--000-000-----0-----0-----0-----0----0-----|
  ... ...     .     .     .     .    .


-----------------------------------------------|
-----------------------------------------------|
-----------------------------------------------|
-------------------------------8---------------|
-----------10-----8-----10-----------10-----8--|
--888-888------8-----8------8-----8------8-----|
  ... ...      .     .      .     .      .


-------------------------------------------|
-------------------------------------------|
-------------------------------------------|
-----------------------------7-------------|
-----------8-----7-----8----------8-----7--|
--000-000-----0-----0-----0-----0----0-----|
  ... ...     .     .     .     .    .


-----------------------------------------------|
-----------------------------------------------|
-----------------------------------------------|
-------------------------------8-----10-----7--|
-----------10-----8-----10---------------------|
--888-888------8-----8------8-----8------8-----|
  ... ...      .     .      .     .      .

-------------------------------------------|
-------------------------------------------|
-------------------------------------------|
-----------------------------7-------------|
-----------8-----7-----8----------8-----7--|
--000-000-----0-----0-----0-----0----0-----|
  ... ...     .     .     .     .    .


-----------------------------------------------|
-----------------------------------------------|
-----------------------------------------------|
-------------------------------8-----10-----7--|
-----------10-----8-----10---------------------|
--888-888------8-----8------8-----8------8-----|
  ... ...      .     .      .     .      .


-----------------------------------------------------------------------------|
-----------------------------------------------------------------------------|
-----------------------------------------------------------------------------|
----------------------7777----------------------------------8888-------------|
----------8888----8888----88887777--------10101010----101010----101010108888-|
--00000000----0000----------------88888888--------8888-----------------------|

-----------------------------------------------------------------------------|
-----------------------------------------------------------------------------|
-----------------------------------------------------------------------------|
------------------------------------------------------------8888101010107777-|
----------8888----8888777788887777--------10101010----101010-----------------|
--00007777----7777----------------88888888--------8888-----------------------|
Добавлено: 30.07.2012
Другие материалы по этой песне:

Страница создана 07.05.2012
http://primanota.ru/carnifex/dead-in-my-arms-chords.htm
Привет, Гость.
Предлагаем пройти революционный курс по гитаре.
Подарок от PrimaNota.Ru, забирай!