PrimaNota.ru - самый крупный в мире бесплатный архив песенных текстов, аккордов, табулатур и нот


Caliban - Memorial - текст песни, таба, видео

Регистрация Запомнить меня
Войти через:  Facebook Google Twitter Vk Yandex Mail.ru

Caliban - Memorial - текст песни, таба, видео

Печатать
Просмотров: 340
Уроки эстрадного вокала в Санкт-Петербурге
Caliban - Memorial

Drop B

Noone tabbed it, so i gave it my best shot.

if you find something wrong or have corrections, i'd be happy to correct it.
should be a good starting point though.

have fun


Intro

Guitar 1

C#      ----------------------------------------------------------------|
G#      ----------------------------------------------------------------|
E       ----------------------------------------------------------------|
B       --0---8---3----0---8---3----------2-----------------------------|
F#      --0---8---3----0---8---3----------3-----------------------------|
B       --0---8---3----0---8---3----------3-----------------------------|
                                        2nd end
Guitar 2

C#      -13-15--------18-17----15---12--------------------------|
G#      ---------13---------------------------------------------|
E       --------------------------------------------------------|
B       --------------------------------------------------------|
F#      --------------------------------------------------------|
B       --------------------------------------------------------|


Verse 1.1

Guitar 1/2

C#      ---------------------------------------------------------------------|
G#      ---------------------------------------------------------------------|
E       ---------------------------------------------------------------------|
B       ---------------------------------------------------------------------|
F#      ---------------------------------------------------------------------|
B       -0-0-000--000---0-0-000-0-000---0-0-000-0-000----0-0-000-0-000-0-0-0-|
           * ***  ***       *** * ***       *** * ***        *** * ***

Verse 1.2

Guitar 1

C#      -----------------------------------------------------------|
G#      -----------------------------------------------------------|
E       -----------------------------------------------------------|
B       -770-770-770-770--550-550-550-550--------10-12---8-7-8-10--|
F#      -----------------------------------12---------10-----------|
B       -----------------------------------------------------------|
                        3x times
Guitar 2

C#      --------------------------------------------------------|
G#      --------------------------------------------------------|
E       --------------------------------------------------------|
B       -330-330-330-330-220-220-220-220-----7-8----5-3-5-7-----|
F#      ----------------------------------8------7--------------|
B       --------------------------------------------------------|






Verse 1.3
Guitar 1 (everything pm)

C#      ---------------------------------------------------------------------|
G#      ---------------------------------------------------------------------|
E       ---------------------------------------------------------------------|
B       ---------------------------------------------------------------------|
F#      ---------------------------------------------------------------------|
B       -875-875-875-875-210-210-210-210-210-000-0-0--0-0-0-000-0-0--000-0-0-|


Guitar 1

C#      ------------------------------------------------------------------|
G#      ------------------------------------------------------------------|
E       ------------------------------------------------------------------|
B       ------------------------------------------------------------------|
F#      ---------------------------------------------------3-3-3-3-5-5-5--|
B       875-875-875-875-210-210-210-210-210-000-0-0--0-0-0-3-3-3-3-5-5-5--|

Guitar 2 (everything pm)

C#      ---------------------------------------------------------------------|
G#      ---------------------------------------------------------------------|
E       ---------------------------------------------------------------------|
B       ---------------------------------------------------------------------|
F#      -531-531-531-531-----------------------------------------------------|
B       -----------------210-210-210-210-210-000-0-0--0-0-0-000-0-0--000-0-0-|


Guitar 2

C#      ------------------------------------------------------------------|
G#      ------------------------------------------------------------------|
E       ------------------------------------------------------------------|
B       ------------------------------------------------------------------|
F#      531-531-531-531------------------------------------3-3-3-3-5-5-5--|
B       ----------------210-210-210-210-210-000-0-0--0-0-0-3-3-3-3-5-5-5--|


Guitar 3


C#      --13---15---12---13---15---12---10---8----------------|
G#      ------------------------------------------------------|
E       ------------------------------------------------------|
B       ------------------------------------------------------|
F#      ------------------------------------------------------|
B       ------------------------------------------------------|





Chorus

Guitar 1

C#      ----------------------------------------------------------------|
G#      ----------------------------------------------------------------|
E       ----------------------------------------------------------------|
B       --8--5--0--3-------------------2--------------------------------|
F#      --8--5--0--3-------------------3--------------------------------|
B       --8--5--0--3-------------------3--------------------------------|
                                    2nd end




Guitar 2

C#      -13-15--------18-17----15---12--------------------------------|
G#      ---------13---------------------------------------------------|
E       --------------------------------------------------------------|
B       --------------------------------------------------------------|
F#      --------------------------------------------------------------|
B       --------------------------------------------------------------|



Pre Verse Guitar 1/2
C#      -----------------------|
G#      -----------------------|
E       -----------------------|
B       --2-------2-2---2------|
F#      --1-------1-1---1------|
B       ----0---------0---0----|



Breakdown

Guitar 1/2

C#      -----------------------------------------------------------|
G#      -----------------------------------------------------------|
E       -----------------------------------------------------------|
B       -----------------------------------------------------------|
F#      --0--------------------------------------------------------|
B       --0--0-000---00000------0--000-000-000-----0-00--000-------|
          *  * ***   *****      *  *** *** ***

C#      -------------------------------------------------------------|
G#      -------------------------------------------------------------|
E       -------------------------------------------------------------|
B       ---------------3---------------------------------------------|
F#      --0------------------7---------------------------------------|
B       --0--0-000----------------0--000-000-000-----0-00--000-------|
          *  * ***                *  *** *** ***

C#      ------------------------------------------------------------|
G#      ------------------------------------------------------------|
E       ------------------------------------------------------------|
B       ------------------------------------------------------------|
F#      --0---------------------------------------------------------|
B       --0--0-000---00000------0--000-000-000-----0-00--000--------|
          *  * ***   *****      *  *** *** ***
C#      -------------------------------------------------------------|
G#      -------------------------------------------------------------|
E       -------------------------------------------------------------|
B       ----------------8--------------------------------------------|
F#      --0-------------------12---------------------3-0-5--5-5-5----|
B       --0--0-000----------------0--000-000-000-----3-0-5--5-5-5----|
          *  * ***                *  *** *** ***
Добавлено: 26.08.2013
Другие материалы по этой песне:

Страница создана 26.08.2013
http://primanota.ru/caliban/memorial-chords.htm
Привет, Гость.
Предлагаем пройти революционный курс по гитаре.
Подарок от PrimaNota.Ru, забирай!