PrimaNota.ru - самый крупный в мире бесплатный архив песенных текстов, аккордов, табулатур и нот


Caliban - Let Go - таба, видео

Регистрация Запомнить меня
Войти через:  Facebook Google Twitter Vk Yandex Mail.ru

Caliban - Let Go - таба, видео

Печатать
Просмотров: 289
Уроки эстрадного вокала в Санкт-Петербурге
                               Let Go

                             by Caliban
                           The Awakening(2007)



tabbed by: mrbraz
Tuning: Drop B (from low to high:B,f#,B,E,g#,c#)

|------------------------------------------------------------------|
|UPDATE: I've mistaken with the tuning!! The song is played        |
|        in Drop B and I've tabbed it in Drop C. So I corrected    |
|        this little mistake and now it should be correct.         |
|        Please rate!!                                             |
|------------------------------------------------------------------| 

Intro

 both guitars
db|---------------------------------------------------------------------|
ab|---------------------------------------------------------------------|
 e|---------------------------------------------------------------------|
 b|-7-8--11-10-3-2------------------------------------------------------|
gb|-7-8--11-10-3-2---7-----8----7------------7-----8----7---------------|
 b|-7-8--11-10-3-2---7-000-8-00-7-000000000--7-000-8-00-7-0111114444111-|
          .  .         ...   ..   .........    ...   ..   .............
 

db|-------------------------------------------------|
ab|--------------------------10--11--12--13--6--5---|
 e|--------------------------9---10--13--12--5--4---|
 b|--------------------------7---8---11--10--3--2---|
gb|-7-----8----7-------------7---8---11--10--3--2---|
 b|-7-000-8-00-7-000000000---7---8---11--10--3--2---|
      ...   ..   .........


Main Riff

 guitar 1
db|-----------------------------------------------------------------|
ab|-----------------------------------------------------------------|
 e|-----------------------------------------------------------------|
 b|-----------------5-------5---------------------------------------|
gb|-8-------8---7h8-------------7h8-4--------4---3h4-0----7--8--7---|
 b|---0-0-0---0-------0-0-0---0--------0-0-0---0--------0---0-0-----|
  |   . . .   .       . . .   .        . . .   .        .   . .
  |
  |
  |guitar 2
db|-----------------------------------------------------------------|
ab|-----------------------------------------------------------------|
 e|-----------------------------------------------------------------|
 b|-----------------5-------5---------------------------------------|
gb|-8-------8---7h8-------------7h8-4--------4---3h4-0----7--8--7---|
 b|---0-0-0---0-------0-0-0---0--------0-0-0---0--------0---0-0-----|
      . . .   .       . . .   .        . . .   .        .   . .


 guitar 1
db|-----------------------------------------------------------------|
ab|-----------------------------------------------------------------|
 e|-----------------------------------------------------------------|
 b|-----------------5-------5---------------------------------------|
gb|-8-------8---7h8-------------7h8-4--------4---3h4-0----7--8--7---|
 b|---0-0-0---0-------0-0-0---0--------0-0-0---0--------0---0-0-----|
  |   . . .   .       . . .   .        . . .   .        .   . .
  |
  |
  |guitar 2
db|-----------------------------------------------------------------|
ab|-----------------------------------------------------------------|
 e|-----------------------------------------------------------------|
 b|-----------------5-------5-----------------------------5--7--5---|
gb|-8-------8---7h8-------------7h8-4--------4---3h4-0--------------|
 b|---0-0-0---0-------0-0-0---0--------0-0-0---0--------0---0-0-----|
      . . .   .       . . .   .        . . .   .        .   . .


Verse 1

 guitar 1
db|-----------------------------------------------------------------|
ab|-----------------------------------------------------------------|
 e|-----------------------------------------------------------------|
 b|-----------------5-------5---------------------------------------|
gb|-8-------8---7h8-------------7h8-4--------4---3h4-0----7--8--7---|
 b|---0-0-0---0-------0-0-0---0--------0-0-0---0--------0---0-0-----|
  |   . . .   .       . . .   .        . . .   .        .   . .
  |
  |
  |guitar 2
db|-----------------------------------------------------------------|
ab|-----------------------------------------------------------------|
 e|-----------------------------------------------------------------|
 b|-----------------5-------5---------------------------------------|
gb|-8-------8---7h8-------------7h8-4--------4---3h4-0----7--8--7---|
 b|---0-0-0---0-------0-0-0---0--------0-0-0---0--------0---0-0-----|
      . . .   .       . . .   .        . . .   .        .   . .
          When I remember the past sad grey days

 
 guitar 1
db|-----------------------------------------------------------------|
ab|-----------------------------------------------------------------|
 e|-----------------------------------------------------------------|
 b|-----------------5-------5---------------------------------------|
gb|-8-------8---7h8-------------7h8-4--------4---3h4-0----7--8--7---|
 b|---0-0-0---0-------0-0-0---0--------0-0-0---0--------0---0-0-----|
  |   . . .   .       . . .   .        . . .   .        .   . .
  |
  |
  |guitar 2
db|-----------------------------------------------------------------|
ab|-----------------------------------------------------------------|
 e|-----------------------------------------------------------------|
 b|-----------------5-------5-----------------------------5--7--5---|
gb|-8-------8---7h8-------------7h8-4--------4---3h4-0--------------|
 b|---0-0-0---0-------0-0-0---0--------0-0-0---0--------0---0-0-----|
      . . .   .       . . .   .        . . .   .        .   . .
         When I surrender. I will never smile again.


Verse pt.2

both guitars
db|-------------------------------------------------------|
ab|-------------------------------------------------------|
 e|-------10//------12//------3//6------------------------|
 b|-------x///------x///------x//x------------------------|
gb|-------8///------10//------1//4------------------------|
 b|-3200-------3200------3200-------00-00-00-00-00-00-00--|
    ....       ....      ....       .. .. .. .. .. .. ..
                   Look in my eyes!! 

db|-------------------------------------------------------|
ab|-------------------------------------------------------|
 e|-------10//------12//------3//6------------------------|
 b|-------x///------x///------x//x------------------------|
gb|-------8///------10//------1//4------------------------|
 b|-3200-------3200------3200-------00-00-00-00-00-00-00--|
    ....       ....      ....       .. .. .. .. .. .. ..
                 A killing glance!!

  
guitar 1
db|-----------------------------------------------------------------|
ab|-----------------------------------------------------------------|
 e|-----------------------------------------------------------------|
 b|-----------------5-------5---------------------------------------|
gb|-8-------8---7h8-------------7h8-4--------4---3h4-0----7--8--7---|
 b|---0-0-0---0-------0-0-0---0--------0-0-0---0--------0---0-0-----|
  |   . . .   .       . . .   .        . . .   .        .   . .
  |
  |
  |guitar 2
db|-----------------------------------------------------------------|
ab|-----------------------------------------------------------------|
 e|-----------------------------------------------------------------|
 b|-----------------5-------5---------------------------------------|
gb|-8-------8---7h8-------------7h8-4--------4---3h4-0----7--8--7---|
 b|---0-0-0---0-------0-0-0---0--------0-0-0---0--------0---0-0-----|
      . . .   .       . . .   .        . . .   .        .   . .
             Love can hurt and that's no secret
    

 guitar 1
db|-----------------------------------------------------------------|
ab|-----------------------------------------------------------------|
 e|-----------------------------------------------------------------|
 b|-----------------5-------5---------------------------------------|
gb|-8-------8---7h8-------------7h8-4--------4---3h4-0----7--8--7---|
 b|---0-0-0---0-------0-0-0---0--------0-0-0---0--------0---0-0-----|
  |   . . .   .       . . .   .        . . .   .        .   . .
  |
  |
  |guitar 2
db|-----------------------------------------------------------------|
ab|-----------------------------------------------------------------|
 e|-----------------------------------------------------------------|
 b|-----------------5-------5-----------------------------5--7--5---|
gb|-8-------8---7h8-------------7h8-4--------4---3h4-0--------------|
 b|---0-0-0---0-------0-0-0---0--------0-0-0---0--------0---0-0-----|
      . . .   .       . . .   .        . . .   .        .   . .
                 But how much pain can i forget?


Chorus

both guitars
db|-------------------------------------------------------|
ab|-------------------------------------------------------|
 e|-------10//------12//------3//6------------------------|
 b|-------x///------x///------x//x------------------------|
gb|-------8///------10//------1//4------------------------|
 b|-3200-------3200------3200-------00-00-00-00-00-00-00--|
    ....       ....      ....       .. .. .. .. .. .. ..
         Everything, everything - you let go
 
db|-------------------------------------------------------|
ab|-------------------------------------------------------|
 e|-------10//------12//------3//6------------------------|
 b|-------x///------x///------x//x------------------------|
gb|-------8///------10//------1//4------------------------|
 b|-3200-------3200------3200-------00-00-00-00-00-00-00--|
    ....       ....      ....       .. .. .. .. .. .. ..
         Everything, everything - brings liberation

db|-------------------------------------------------------|
ab|-------------------------------------------------------|
 e|-------10//------12//------3//6------------------------|
 b|-------x///------x///------x//x------------------------|
gb|-------8///------10//------1//4------------------------|
 b|-3200-------3200------3200-------00-00-00-00-00-00-00--|
    ....       ....      ....       .. .. .. .. .. .. ..
         Everything, everything - we let go

db|-------------------------------------------------------|
ab|-------------------------------------------------------|
 e|-------10//------12//------3//6------------------------|
 b|-------x///------x///------x//x------------------------|
gb|-------8///------10//------1//4------------------------|
 b|-3200-------3200------3200-------00-00-00-00-00-00-00--|
    ....       ....      ....       .. .. .. .. .. .. ..
         Everything, everything leads to salvation        
 

Fill 

db|-----------------|
ab|-----------------|
 e|-----------------|
 b|-7-8--11-10-3-2--|
gb|-7-8--11-10-3-2--|
 b|-7-8--11-10-3-2--|
          .  . 


Verse 2 

db|----------------------------------------------------|
ab|----------------------------------------------------|
 e|----------------------------------------------------|
 b|----------------------------------------------------|
gb|-7-----8----7------------7-----8----7---------------|
 b|-7-000-8-00-7-000000000--7-000-8-00-7-0111114444111-|
      ...   ..   .........    ...   ..   .............
       The time we split I felt this anger

db|-------------------------------------------------|
ab|--------------------------10--11--12--13--6--5---|
 e|--------------------------9---10--13--12--5--4---|
 b|--------------------------7---8---11--10--3--2---|
gb|-7-----8----7-------------7---8---11--10--3--2---|
 b|-7-000-8-00-7-000000000---7---8---11--10--3--2---|
      ...   ..   .........
        You were my blaze but pulled my anchor

db|----------------------------------------------------|
ab|----------------------------------------------------|
 e|----------------------------------------------------|
 b|----------------------------------------------------|
gb|-7-----8----7------------7-----8----7---------------|
 b|-7-000-8-00-7-000000000--7-000-8-00-7-0111114444111-|
      ...   ..   .........    ...   ..   .............
       Every clopud has a silver lining  

db|-------------------------------------------------|
ab|--------------------------10--11--12--13--6--5---|
 e|--------------------------9---10--13--12--5--4---|
 b|--------------------------7---8---11--10--3--2---|
gb|-7-----8----7-------------7---8---11--10--3--2---|
 b|-7-000-8-00-7-000000000---7---8---11--10--3--2---|
      ...   ..   .........
       and that's blessing in disguise


Chorus

both guitars
db|-------------------------------------------------------|
ab|-------------------------------------------------------|
 e|-------10//------12//------3//6------------------------|
 b|-------x///------x///------x//x------------------------|
gb|-------8///------10//------1//4------------------------|
 b|-3200-------3200------3200-------00-00-00-00-00-00-00--|
    ....       ....      ....       .. .. .. .. .. .. ..
         Everything, everything - you let go
 
db|-------------------------------------------------------|
ab|-------------------------------------------------------|
 e|-------10//------12//------3//6------------------------|
 b|-------x///------x///------x//x------------------------|
gb|-------8///------10//------1//4------------------------|
 b|-3200-------3200------3200-------00-00-00-00-00-00-00--|
    ....       ....      ....       .. .. .. .. .. .. ..
         Everything, everything - brings liberation

db|-------------------------------------------------------|
ab|-------------------------------------------------------|
 e|-------10//------12//------3//6------------------------|
 b|-------x///------x///------x//x------------------------|
gb|-------8///------10//------1//4------------------------|
 b|-3200-------3200------3200-------00-00-00-00-00-00-00--|
    ....       ....      ....       .. .. .. .. .. .. ..
         Everything, everything - we let go

db|-------------------------------------------------------|
ab|-------------------------------------------------------|
 e|-------10//------12//------3//6------------------------|
 b|-------x///------x///------x//x------------------------|
gb|-------8///------10//------1//4------------------------|
 b|-3200-------3200------3200-------00-00-00-00-00-00-00--|
    ....       ....      ....       .. .. .. .. .. .. ..
         Everything, everything leads to salvation        
 


Breakdown


db|---------------------------|
ab|---------------------------|
 e|---------------------------|
 b|---------------------------|
gb|-0-0-0~~-000-000--0-0-0~~--|
 b|-1-1-1~~-111-111--1-1-1~~--|
    . .     ... ...  . .
 
db|---------------------------------------------------------------|
ab|---------------------------------------------------------------|
 e|----------------------------------------------------------2-5--|
 b|-------------------------------------------------3-------------|
gb|-0-0-0-000-000-0-0--------0-0-0-000-000-0-0--------2--1-4------|
 b|-1-1-1-111-111-1-1--------1-1-1-111-111-1-1--2-5---------------|
  | . . . ... ... . .        . . . ... ... . .
  |
  |
  |
db|---------------------------------------------------------------|
ab|----------------------------------------------------------3-6--|
 e|-------------------------------------------------4-------------|
 b|---------------------------------------------------3--2-5------|
gb|-0-0-0-000-000-0-0--------0-0-0-000-000-0-0--1-4---------------|
 b|-1-1-1-111-111-1-1--------1-1-1-111-111-1-1--------------------|
    . . . ... ... . .        . . . ... ... . .
                 Liberation!!

db|---------------------------------------------------------------|
ab|---------------------------------------------------------------|
 e|----------------------------------------------------------5-8--|
 b|-------------------------------------------------6-------------|
gb|-0-0-0-000-000-0-0--------0-0-0-000-000-0-0--------5--4-7------|
 b|-1-1-1-111-111-1-1--------1-1-1-111-111-1-1--5-8---------------|
  | . . . ... ... . .        . . . ... ... . .
  |
  |
  |
db|---------------------------------------------------------------|
ab|----------------------------------------------------------6-9--|
 e|-------------------------------------------------7-------------|
 b|---------------------------------------------------6--5-8------|
gb|-0-0-0-000-000-0-0--------0-0-0-000-000-0-0--4-7---------------|
 b|-1-1-1-111-111-1-1--------1-1-1-111-111-1-1--------------------|
    . . . ... ... . .        . . . ... ... . .
                  Salvation!!

db|-----------------------------------------------------------------|
ab|-----------------------------------------------------------------|
 e|------------------------------------------------------------8-11-|
 b|--------------------------------------------------9--------------|
gb|-0-0-0-000-000-0-0--------0-0-0-000-000-0-0---------8--7-10------|
 b|-1-1-1-111-111-1-1--------1-1-1-111-111-1-1--8-11----------------|
  | . . . ... ... . .        . . . ... ... . .
  |
  |
  |
db|------------------------------------------------------------------|
ab|-------------------------------------------------------------9-12-|
 e|--------------------------------------------------10--------------|
 b|-----------------------------------------------------9--8-11------|
gb|-0-0-0-000-000-0-0--------0-0-0-000-000-0-0--7-10-----------------|
 b|-1-1-1-111-111-1-1--------1-1-1-111-111-1-1-----------------------|
    . . . ... ... . .        . . . ... ... . .


db|--------|
ab|--------|
 e|--------|
 b|--------|
gb|-0-0-0--|
 b|-1-1-1--|
    . . .    

then
 guitar 1
db|-----------------------------------------------------------------|
ab|-----------------------------------------------------------------|
 e|-----------------------------------------------------------------|
 b|-----------------5-------5---------------------------------------|
gb|-8-------8---7h8-------------7h8-4--------4---3h4-0----7--8--7---|
 b|---0-0-0---0-------0-0-0---0--------0-0-0---0--------0---0-0-----|
  |   . . .   .       . . .   .        . . .   .        .   . .
  |
  |
  |guitar 2
db|-----------------------------------------------------------------|
ab|-----------------------------------------------------------------|
 e|-----------------------------------------------------------------|
 b|-----------------5-------5---------------------------------------|
gb|-8-------8---7h8-------------7h8-4--------4---3h4-0----7--8--7---|
 b|---0-0-0---0-------0-0-0---0--------0-0-0---0--------0---0-0-----|
      . . .   .       . . .   .        . . .   .        .   . .


 guitar 1
db|-----------------------------------------------------------------|
ab|-----------------------------------------------------------------|
 e|-----------------------------------------------------------------|
 b|-----------------5-------5---------------------------------------|
gb|-8-------8---7h8-------------7h8-4--------4---3h4-0----7--8--7---|
 b|---0-0-0---0-------0-0-0---0--------0-0-0---0--------0---0-0-----|
  |   . . .   .       . . .   .        . . .   .        .   . .
  |
  |
  |guitar 2
db|-----------------------------------------------------------------|
ab|-----------------------------------------------------------------|
 e|-----------------------------------------------------------------|
 b|-----------------5-------5-----------------------------5--7--5---|
gb|-8-------8---7h8-------------7h8-4--------4---3h4-0--------------|
 b|---0-0-0---0-------0-0-0---0--------0-0-0---0--------0---0-0-----|
      . . .   .       . . .   .        . . .   .        .   . .


Verse 3

 guitar 1
db|-----------------------------------------------------------------|
ab|-----------------------------------------------------------------|
 e|-----------------------------------------------------------------|
 b|-----------------5-------5---------------------------------------|
gb|-8-------8---7h8-------------7h8-4--------4---3h4-0----7--8--7---|
 b|---0-0-0---0-------0-0-0---0--------0-0-0---0--------0---0-0-----|
  |   . . .   .       . . .   .        . . .   .        .   . .
  |
  |
  |guitar 2
db|-----------------------------------------------------------------|
ab|-----------------------------------------------------------------|
 e|-----------------------------------------------------------------|
 b|-----------------5-------5---------------------------------------|
gb|-8-------8---7h8-------------7h8-4--------4---3h4-0----7--8--7---|
 b|---0-0-0---0-------0-0-0---0--------0-0-0---0--------0---0-0-----|
      . . .   .       . . .   .        . . .   .        .   . .
          When I remember the past sad grey days

 
 guitar 1
db|-----------------------------------------------------------------|
ab|-----------------------------------------------------------------|
 e|-----------------------------------------------------------------|
 b|-----------------5-------5---------------------------------------|
gb|-8-------8---7h8-------------7h8-4--------4---3h4-0----7--8--7---|
 b|---0-0-0---0-------0-0-0---0--------0-0-0---0--------0---0-0-----|
  |   . . .   .       . . .   .        . . .   .        .   . .
  |
  |
  |guitar 2
db|-----------------------------------------------------------------|
ab|-----------------------------------------------------------------|
 e|-----------------------------------------------------------------|
 b|-----------------5-------5-----------------------------5--7--5---|
gb|-8-------8---7h8-------------7h8-4--------4---3h4-0--------------|
 b|---0-0-0---0-------0-0-0---0--------0-0-0---0--------0---0-0-----|
      . . .   .       . . .   .        . . .   .        .   . .
           The cold september when you said goodbye


Verse pt.2

both guitars
db|-------------------------------------------------------|
ab|-------------------------------------------------------|
 e|-------10//------12//------3//6------------------------|
 b|-------x///------x///------x//x------------------------|
gb|-------8///------10//------1//4------------------------|
 b|-3200-------3200------3200-------00-00-00-00-00-00-00--|
    ....       ....      ....       .. .. .. .. .. .. ..
                   Look in my eyes!! 

db|-------------------------------------------------------|
ab|-------------------------------------------------------|
 e|-------10//------12//------3//6------------------------|
 b|-------x///------x///------x//x------------------------|
gb|-------8///------10//------1//4------------------------|
 b|-3200-------3200------3200-------00-00-00-00-00-00-00--|
    ....       ....      ....       .. .. .. .. .. .. ..
                 A killing glance!!

  
guitar 1
db|-----------------------------------------------------------------|
ab|-----------------------------------------------------------------|
 e|-----------------------------------------------------------------|
 b|-----------------5-------5---------------------------------------|
gb|-8-------8---7h8-------------7h8-4--------4---3h4-0----7--8--7---|
 b|---0-0-0---0-------0-0-0---0--------0-0-0---0--------0---0-0-----|
  |   . . .   .       . . .   .        . . .   .        .   . .
  |
  |
  |guitar 2
db|-----------------------------------------------------------------|
ab|-----------------------------------------------------------------|
 e|-----------------------------------------------------------------|
 b|-----------------5-------5---------------------------------------|
gb|-8-------8---7h8-------------7h8-4--------4---3h4-0----7--8--7---|
 b|---0-0-0---0-------0-0-0---0--------0-0-0---0--------0---0-0-----|
      . . .   .       . . .   .        . . .   .        .   . .
             Every end is a new beginning
    

 guitar 1
db|-----------------------------------------------------------------|
ab|-----------------------------------------------------------------|
 e|-----------------------------------------------------------------|
 b|-----------------5-------5---------------------------------------|
gb|-8-------8---7h8-------------7h8-4--------4---3h4-0----7--8--7---|
 b|---0-0-0---0-------0-0-0---0--------0-0-0---0--------0---0-0-----|
  |   . . .   .       . . .   .        . . .   .        .   . .
  |
  |
  |guitar 2
db|-----------------------------------------------------------------|
ab|-----------------------------------------------------------------|
 e|-----------------------------------------------------------------|
 b|-----------------5-------5-----------------------------5--7--5---|
gb|-8-------8---7h8-------------7h8-4--------4---3h4-0--------------|
 b|---0-0-0---0-------0-0-0---0--------0-0-0---0--------0---0-0-----|
      . . .   .       . . .   .        . . .   .        .   . .
          I'm looking forward to rise from the dust


Chorus

both guitars
db|-------------------------------------------------------|
ab|-------------------------------------------------------|
 e|-------10//------12//------3//6------------------------|
 b|-------x///------x///------x//x------------------------|
gb|-------8///------10//------1//4------------------------|
 b|-3200-------3200------3200-------00-00-00-00-00-00-00--|
    ....       ....      ....       .. .. .. .. .. .. ..
         Everything, everything - you let go
 
db|-------------------------------------------------------|
ab|-------------------------------------------------------|
 e|-------10//------12//------3//6------------------------|
 b|-------x///------x///------x//x------------------------|
gb|-------8///------10//------1//4------------------------|
 b|-3200-------3200------3200-------00-00-00-00-00-00-00--|
    ....       ....      ....       .. .. .. .. .. .. ..
         Everything, everything - brings liberation

db|-------------------------------------------------------|
ab|-------------------------------------------------------|
 e|-------10//------12//------3//6------------------------|
 b|-------x///------x///------x//x------------------------|
gb|-------8///------10//------1//4------------------------|
 b|-3200-------3200------3200-------00-00-00-00-00-00-00--|
    ....       ....      ....       .. .. .. .. .. .. ..
         Everything, everything - we let go

db|-------------------------------------------------------|
ab|-------------------------------------------------------|
 e|-------10//------12//------3//6------------------------|
 b|-------x///------x///------x//x------------------------|
gb|-------8///------10//------1//4------------------------|
 b|-3200-------3200------3200-------00-00-00-00-00-00-00--|
    ....       ....      ....       .. .. .. .. .. .. ..
         Everything, everything leads to salvation        
 

End up with 

db|-----------------|
ab|-----------------|
 e|-----------------|
 b|-7-8--11-10-3-2--|
gb|-7-8--11-10-3-2--|
 b|-7-8--11-10-3-2--|
          
Добавлено: 06.04.2012
Другие материалы по этой песне:
  • Аккорды и текст

Страница создана 06.04.2012
http://primanota.ru/caliban/let-go-chords.htm
Привет, Гость.
Предлагаем пройти революционный курс по гитаре.
Подарок от PrimaNota.Ru, забирай!