PrimaNota.ru - самый крупный в мире бесплатный архив песенных текстов, аккордов, табулатур и нот


Cake - Arco Arena - аккорды и текст, таба, бас-таба, видео

Регистрация Запомнить меня
Войти через:  Facebook Google Twitter Vk Yandex Mail.ru

Cake - Arco Arena - аккорды и текст, таба, бас-таба, видео

Печатать
Просмотров: 199
Авторы музыки: John McCrea

Arco Arena
Cake
Song: Arco Arena
Artist: Cake
Album: Comfort Eagle
Tabbed By: Nathan Drackett (crimsonmaterian@mac.com)

Don't have the power chords, or whatever plays behind all this stuff, 
but I did add in some of the other guitar's part so that you can play it 
with one person. Sounds great on accoustic. Have fun! ^_^

|----|----|----|----|
|----|----|----|----|
|2---|2---|---2|0---|	x3
|--2-|-2-3|----|--32|
|---0|--0-|----|-0--|
|----|----|----|----|

|----|----|----|----|----|
|----|----|----|----|----|
|--0-|----|----|-2--|---2|
|2--3|20--|----|----|----|
|----|----|3523|0-35|230-|
|----|----|----|----|----|

	coda
|8-53|5-01|50--|
|----|----|--1-|
|----|----|----|
|----|----|----|
|----|----|----|
|----|----|----|

|8-53|5-01|50--|
|----|----|----|	
|----|----|----|
|----|----|----|
|----|----|----|
|----|----|----|

|8-53|5-01|50--|
|----|----|--1-|
|----|----|----|
|----|----|----|
|----|----|----|
|----|----|----|

|----|----|----|
|351-|01--|----|
|---2|----|----|
|----|----|----|
|----|----|----|
|----|----|----|
	repeat from coda

|----|----|----|----|
|----|----|----|----|
|2---|2---|---2|0---|	x3
|--2-|-2-3|--3-|--32|
|---0|--0-|-0--|-0--|
|----|----|----|----|

|----|----|----|----|----|----|----|
|----|----|----|----|----|----|----|
|--0-|----|----|----|----|-2--|---2|
|2--3|20--|----|----|----|----|----|
|----|----|----|----|3523|0-35|230-|
|----|----|----|----|----|----|----|
	repeat

     
Добавлено: 04.10.2013
Другие материалы по этой песне:

Страница создана 27.02.2012
http://primanota.ru/cake/arco-arena-chords.htm
Привет, Гость.
Предлагаем пройти революционный курс по гитаре.
Подарок от PrimaNota.Ru, забирай!