PrimaNota.ru - самый крупный в мире бесплатный архив песенных текстов, аккордов, табулатур и нот


Cake - Commisioning A Symphony In C - бас-таба, видео

Регистрация Запомнить меня
Войти через:  Facebook Google Twitter Vk Yandex Mail.ru

Cake - Commisioning A Symphony In C - бас-таба, видео

Печатать
Просмотров: 116
Band: Cake
Song: Commisioning A Symphony in C
Album: Comfort Eagle
Tuning: Standard(G-D-A-E)
Difficulty: Easy
Tabbed By: MastaBassa (That's Me)

This song is not that hard, but it's really good.

Enjoy!

The bass comes in about 5 seconds in you'll know when by listening to the song

Intro:
G---------------------|
D---------------------|
A-5-5-5-5-5-5-5-5-----|
E---------------------|

Verse 1:
G---------------------------------------------------------|
D-------------------------------------------------5-5-5-5-|
A-5-5-5-5-5-5-5-5-----------------5-5-5-5-3-3-3-3---------|
E-----------------5-5-5-5-5-5-5-5-------------------------|

G---------------------------------------------------------|
D-5---5-7-8-8-8-8-8-8-8-8-----------------8-8-8-8-8-8-8-8-|
A---5---------------------8-8-8-8-8-8-8-8-----------------|
E---------------------------------------------------------|
(Only Fill 1 first time)
Fill 1:
G--------------------|
D--------------------|
A-8-8-8-8-8-8-8-8----|
E--------------------|   X2

Riff 2:
G---------------------------------------------------------|
D-------------------------5-5-5-5-------------------------|
A-8-8-8-8-7-7-7-7-5-5-5-5---------3-3-3-3-3-3-3-3---------|
E---------------------------------------------------------|

G---------------------------------------------------------|
D-------------------------5-5-5-5-------------------------|
A-8-8-8-8-7-7-7-7-5-5-5-5---------3-----------------------|
E---------------------------------------------------------|

Riff 1:
G---------------------------------------------------------|
D-------------------------------------------------5-5-5-5-|
A-5-5-5-5-5-5-5-5-----------------5-5-5-5-3-3-3-3---------|
E-----------------5-5-5-5-5-5-5-5-------------------------|

G---------------------------------------------------------|
D-5---5-7-8-8-8-8-8-8-8-8-----------------8-8-8-8-8-8-8-8-|
A---5---------------------8-8-8-8-8-8-8-8-----------------|
E---------------------------------------------------------|
(Play Fill both times)
Fill 1:
G--------------------|
D--------------------|
A-8-8-8-8-8-8-8-8----|
E--------------------|   X2


Riff 2:
G---------------------------------------------------------|
D-------------------------5-5-5-5-------------------------|
A-8-8-8-8-7-7-7-7-5-5-5-5---------3-3-3-3-3-3-3-3---------|
E---------------------------------------------------------|

G---------------------------------------------------------|
D-------------------------5-5-5-5-------------------------|
A-8-8-8-8-7-7-7-7-5-5-5-5--------3-[3-3-3-3-3-3-3]--------|
E---------------------------------------------------------|   X2(On second repeat only 
notes not in [ ])

Riff 1:
G---------------------------------------------------------|
D-------------------------------------------------5-5-5-5-|
A-5-5-5-5-5-5-5-5-----------------5-5-5-5-3-3-3-3---------|
E-----------------5-5-5-5-5-5-5-5-------------------------|

G---------------------------------------------------------|
D-5---5-7-8-8-8-8-8-8-8-8-----------------8-8-8-8-8-8-8-8-|
A---5---------------------8-8-8-8-8-8-8-8-----------------|
E---------------------------------------------------------|
(On last repeat play Fill 2)
Fill 1:
G-------------------|
D-------------------|
A-8-8-8-8-8-8-8-8---|
E-------------------|  X3


Fill 2:
G-----------------|
D-8-8-8-8-8-8-8-8-|
A-----------------|
E-----------------|

Riff 2:
G---------------------------------------------------------|
D-------------------------5-5-5-5-------------------------|
A-8-8-8-8-7-7-7-7-5-5-5-5---------3-3-3-3-3-3-3-3---------|
E---------------------------------------------------------|

G---------------------------------------------------------|
D-------------------------5-5-5-5-------------------------|
A-8-8-8-8-7-7-7-7-5-5-5-5---------3-[3-3-3-3-3-3-3]-------|
E---------------------------------------------------------|
X3(On third repeat only play notes not in [ ])

Congratulations!

Any Questions, Comments, Corrections, Threats please E-Mail me at
MastaBassa72090@gmail.com
Добавлено: 08.06.2012
Другие материалы по этой песне:

Страница создана 11.04.2012
http://primanota.ru/cake/commisioning-a-symphony-in-c-chords.htm
Привет, Гость.
Предлагаем пройти революционный курс по гитаре.
Подарок от PrimaNota.Ru, забирай!