PrimaNota.ru - самый крупный в мире бесплатный архив песенных текстов, аккордов, табулатур и нот


C418 - Wet Hands Minecraft - таба, видео

Регистрация Запомнить меня
Войти через:  Facebook Google Twitter Vk Yandex Mail.ru

C418 - Wet Hands Minecraft - таба, видео

Печатать
Просмотров: 548
E|-----------------|-------0--------|-----------------|-------0--------|
B|-------0-2-0-----|-----2---2------|-------0-2-0-----|-----2---2------|
G|-----2-------2---|---2-------2----|-----2-------2---|---2-------2----|
D|---2-----------2-|-0--------------|---2-----------2-|-0--------------|
A|-0---------------|----------------|-0---------------|----------------|
E|-----------------|----------------|-----------------|----------------|



E|-4-----------5---|-2-----------0-2-|-4---------------|---------------0-|
B|---------------2-|-----2-----------|-------------0-2-|-----2-------2---|
G|-----2-----------|---2---2---2-----|-----2-----------|---2---2---2-----|
D|---2---2---2-----|-0-------0-------|---2---2---2-----|-0-------0-------|
A|-0-------0-------|-----------------|-0-------0-------|-----------------|
E|-----------------|-----------------|-----------------|-----------------|



E|-3-----2---------|---------------|-3---2-----------|------------------|
B|---------3-----0-|---------0-----|-3-------3-----0-|------------------|
G|-----0-----0-2---|-----2---2-----|-0-----0---0-2---|-----2-------2----|
D|---0-------------|---0---0-0-----|---0-------------|---0---0---0------|
A|-----------------|---------------|-----------------|------------------|
E|-3---------------|-3-------------|-3---------------|-3-------3--------|



E|---------0-------|-----------------|-------------0-2-|-----------------|
B|-----0-2---2-0---|-------0-2-0-----|-3-----2---------|---3-----------2-|
G|---2-----------2-|-----2-------2---|-----4---2-------|-------4---4-4---|
D|-2---------------|---2-----------2-|---4-------4-----|-----4---4-------|
A|-0---------------|-0---------------|-2---------------|-2---------------|
E|-----------------|-----------------|-----------------|-----------------|



E|-----------2-----|---------------|-----------------|------------------|
B|-3---2-3-------3-|-2---------0---|---------0-------|---------0--------|
G|-------------0---|-2-------------|-------1---1-----|-------1---1------|
D|---0-------------|-2-------------|-----2-------2---|-----2------------|
A|-----------------|-0-------------|---2-----------2-|---2---------2----|
E|-3-------3-------|---------------|-0---------------|-0----------------|



E|-3-2-0---0---0-2-|---0-----5-------|-4-0------------|-----------------|
B|-------3---3-----|-----------2-----|-----0----------|-0---------------|
G|-----------------|-------2-----2---|-------1--------|---1-------------|
D|---------0-------|-----2---------2-|-----2---2------|-----2---2-------|
A|-----------------|-0---------------|---2---2--------|---2-2-2-2-------|
E|-3---------------|-----------------|-0-------0------|-0-------0-------|



E|-----------0------------|-----------0--------------|
B|--------------0---------|--------------0-----------|
G|--------1--------1------|--------1--------1--------|
D|-----2------------------|-----2--------------------|
A|------------------------|--------------------------|
E|--0---------------------|--0-----------------------|
Добавлено: 08.08.2014
Другие материалы по этой песне:
  • Аккорды и текст

Страница создана 08.08.2014
http://primanota.ru/c418/wet-hands-minecraft-chords.htm
Привет, Гость.
Предлагаем пройти революционный курс по гитаре.
Подарок от PrimaNota.Ru, забирай!