PrimaNota.ru - самый крупный в мире бесплатный архив песенных текстов, аккордов, табулатур и нот


Bullet For My Valentine - Welcome Home Sanitarium - таба, видео

Регистрация Запомнить меня
Войти через:  Facebook Google Twitter Vk Yandex Mail.ru

Bullet For My Valentine - Welcome Home Sanitarium - таба, видео

Печатать
Просмотров: 402
Уроки эстрадного вокала в Санкт-Петербурге
Авторы музыки: Kirk Hammett, James Hetfield, Lars Ulrich
Авторы текста: James Hetfield
This is an awesome song. Bullet For My Valentine did an awesome cover. There's
only little differences from the original. here it goes.

2008/03/13: Update. out in most of bridge 2 and added some of the harmonies
2008/09/08: Update. found a couple mistakes and put harmony for second solo
2008/12/16: Update. fixed harmony to second solo and added part of outro.
2008/12/17: Update. added to outro 

Intro:

gtr. 1 clean
E|---------------<12>-----------------3-3h5p0----------------<12>-------------|
B|--------------------<12>------------0-0-------------------------<12>--------|
G|----------------------------------------------------------------------------|
D|----------------------------------------------------------------------------|
A|----------------------------------------------------------------------------|
E|--0-----------------------------------------0-------------------------------|

E|---0-2------------------<12>-------------------<12>--------------------<7>-----|
B|---0-0-----------------------<12>-------------------<12>-------------------<7>-|
G|-------------------------------------------------------------------------------|
D|-------------------------------------------------------------------------------|
A|-------------------------------------------------------------------------------|
E|-------------0-----------------------0-----------------------0-----------------|

E|--------------<12>----------|
B|-------------------<12>-----|
G|------------------------<12>|
D|----------------------------|
A|----------------------------|
E|0---------------------------|

Solo 1:

Rhythm Figure 1.

gtr. 1
E|----------------------------------------------------------------|
B|----------------------------------------------------------------|
G|----------0-----------0-------------0---------------------------|
D|-------4-----------5-------------7-----------0--------0-------0-|
A|----2-----------3-----------3/5-----------4--------2------------|
E|-0-----------0-----------0-------------5--------3--------3/5----|x 8

gtr. 2 with distortion *after gtr. 1 plays rhy. fig 1 4 x
E|-------------------------10/12-15/1717v--15-15\13-12/14-12h14p12----12----------|
B|-------------------10/12-----------------------------------------15----15-13-12-|
G|-----11-12-9v---12--------------------------------------------------------------|
D|---9----------------------------------------------------------------------------|
A|/7------------------------------------------------------------------------------|
E|--------------------------------------------------------------------------------|

E|---------------------------------------19v--19------------17-17-15-14----------|
B|12h13p12-----------------------------17-------17----------------------17-15-14-|
G|---------14-12\11------------------16-----------16~\14v------------------------|
D|------------------12----12/14~-------------------------------------------------|
A|---------------------14--------------------------------------------------------|
E|-------------------------------------------------------------------------------|

E|------------------1210h12p10---------------5------3-----------------|
B|----------------13----------13-12v~----------------------9v~--------|
G|16-14-12b~----14-------------------------6------4------6------------|
D|------------14------------------------/7-----/5-----/7--------------|
A|--------------------------------------------------------------------|
E|--------------------------------------------------------------------|


Verse 1:

E|----------------------------------------------------------------|
B|----------------------------------------------------------------|
G|----------0-----------0-------------0---------------------------|
D|-------4-----------5-------------7-----------0--------0-------0-|
A|----2-----------3-----------3/5-----------4--------2------------|
E|-0-----------0-----------0-------------5--------3--------3/5----|x 4

Welcome to where time stands still, no one leaves and no one will
Moon is full never seems to change, just labeled mentally deranged
Dream the same thing every night, I see our freedom in my sight
No locked doors, no windows barred , no things to make my brain seem scared

Pre-chorus 1:
  gtr. with distortion
E|-----------------------------------------|--|
B|-----------------------------------------|--|
G|*------0------0-------0-----------------*|--|
D|-----4------5-------7-------0-----0---0--|8\|
A|*--2------3-------5-------4-----2-------*|8\|
E|-0------0-------0-------5-----3-----5----|6\|
   . . .  . . .   . . .   . .   . .   . p.m.

Sleep my friend and you will see that dream is my reality
Keep me locked up in this cage, can't they see it's why my brain says rage?

Chorus 1:
gtr. with distortion
E|---------------------------------------------|
B|---------------------------------------------|
G|------------xx-5\4-xx-5-4~-444444------------|
D|2~---xx-5\4-xx-5\4-xx-5-4~-444444-0h2p0------|
A|2~---xx-5\4-xx-3\2-xx-3-2~-222222------32----|
E|0~---xx-3\2------------------------------5325|

E|---------------------------------------------|
B|---------------------------------------------|
G|------------xx-5\4-xx-5-4~-444444-5-4---4-2--|
D|2~---xx-5\4-xx-5\4-xx-5-4~-444444-5-4-5-4-2-4|
A|2~---xx-5\4-xx-3\2-xx-3-2~-222222-3-2-5-2-0-4|
E|0~---xx-3\2---------------------------3-----2|

E|---------------------------------------------|
B|---------------------------------------------|
G|------------xx-5\4-xx-5-4~-444444------------|
D|2~---xx-5\4-xx-5\4-xx-5-4~-444444-0h2p0------|
A|2~---xx-5\4-xx-3\2-xx-3-2~-222222------32----|
E|0~---xx-3\2------------------------------5325|

E|---------------------------------------------|
B|---------------------------------------------|
G|------------xx-5\4-xx-5-4~-------------------|
D|2~---xx-5\4-xx-5\4-xx-5-4~-------------------|
A|2~---xx-5\4-xx-3\2-xx-3-2~-------------------|
E|0~---xx-3\2----------------------------------|

Solo 2:

gtr.2
E|------------------------------------|
B|----------------------------10------|
G|-------------------9-9-9/11---------|
D|------------7-7/9-------------------|
A|---5-5-7/9--------------------------|
E|/7----------------------------------|

   gtr.2   *with Rhythm figure 1 4 times
/E|-----15-17-19-19-------17h19p17---15--17h19p17--------17h19p17-15-----|
|B|17-19------------17~-----------------------------19-------------------|
|G|------------------------------------------------------------------16~-|
|D|----------------------------------------------------------------------|
|A|----------------------------------------------------------------------|
|E|----------------------------------------------------------------------|
|  gtr.3 *Harmony
|E|----------------------------------------------------------------------|
|B|-----------------------21h22p21---19--21h22p21--------21h22p21--------|
|G|-------------------------------------------------21------------21~----|
|D|----------------------------------------------------------------------|
|A|----------------------------------------------------------------------|
\E|----------------------------------------------------------------------|

E|-----------1415171514h15p14--14-----------------------------------------|
B|15b16~r15------------------17--171514--14-------------------------------|
G|-------------------------------------16--161414\1214p12--12-------------|
D|-------------------------------------------------------16--161412--12h14|
A|-----------------------------------------------------------------16-----|
E|------------------------------------------------------------------------|

E|-----17-----15-----14-----12----10---7--------------------------5------3--------|
B|17\15--15\14--14\12--12\10--10\8--8\7-7-----------------------------------------|
G|---------------------------------------7-9/11-9~---999-7------6------4------6-9~|
D|----------------------------------------9----------------5-/7-----\5-----\7-----|
A|--------------------------------------------------------------------------------|
E|--------------------------------------------------------------------------------|


verse 2:clean

E|----------------------------------------------------------------|
B|----------------------------------------------------------------|
G|----------0-----------0-------------0---------------------------|
D|-------4-----------5-------------7-----------0--------0-------0-|
A|----2-----------3-----------3/5-----------4--------2------------|
E|-0-----------0-----------0-------------5--------3--------3/5----|x 4

Build my fear of what's out there, cannot breath the open air
Whisper things into my brain, assuring me that I'm insane
They think our heads are in their hands, but violent use brings violent plans
Keep him tied, it makes him well, he's getting better can't you tell?

Pre-chorus 2:with distortion

E|-----------------------------------------|--|
B|-----------------------------------------|--|
G|*------0------0-------0-----------------*|--|
D|-----4------5-------7-------0-----0---0--|8\|
A|*--2------3-------5-------4-----2-------*|8\|
E|-0------0-------0-------5-----3-----5----|6\|
   . . .  . . .   . . .   . .   . .   . p.m.

No more can they keep us in, listen damn it we will win
They see it right, they see it well, but they think this saves from our hell

Chorus 2:

E|---------------------------------------------|
B|---------------------------------------------|
G|------------xx-5\4-xx-5-4~-444444------------|
D|2~---xx-5\4-xx-5\4-xx-5-4~-444444-0h2p0------|
A|2~---xx-5\4-xx-3\2-xx-3-2~-222222------32----|
E|0~---xx-3\2------------------------------5325|

E|---------------------------------------------|
B|---------------------------------------------|
G|------------xx-5\4-xx-5-4~-444444-5-4---4-2--|
D|2~---xx-5\4-xx-5\4-xx-5-4~-444444-5-4-5-4-2-4|
A|2~---xx-5\4-xx-3\2-xx-3-2~-222222-3-2-5-2-0-4|
E|0~---xx-3\2---------------------------3-----2|

E|---------------------------------------------|
B|---------------------------------------------|
G|------------xx-5\4-xx-5-4~-444444------------|
D|2~---xx-5\4-xx-5\4-xx-5-4~-444444-0h2p0------|
A|2~---xx-5\4-xx-3\2-xx-3-2~-222222------32----|
E|0~---xx-3\2------------------------------5325|

E|---------------------------------------------|
B|---------------------------------------------|
G|------------xx-5\4-xx-5-4~-------------------|
D|2~---xx-5\4-xx-5\4-xx-5-4~--------0h2p0------|
A|2~---xx-5\4-xx-3\2-xx-3-2~-------------32----|
E|0~---xx-3\2------------------------------5323|

E|---------------------------------------------|
B|---------------------------------------------|
G|------------xx-5\4-xx-5-4~-------------------|
D|2~---xx-5\4-xx-5\4-xx-5-4~--------0h2p0------|
A|2~---xx-5\4-xx-3\2-xx-3-2~-------------32----|
E|0~---xx-3\2------------------------------5323|

Post-Chorus:
E|----------------------------------------------------------|
B|----------------------------------------------------------|
G|----------------------------------------------------------|
D|2~------------------------------------------2-------------|
A|2~------------------------------------------2-----*\\\\\\\|
E|0~------------------------------------------0-----*\\\\\\\|
                                                     pickslide

Bridge:

gtr. 1.
/E|---------------------------|----------------------------------------------------|
|B|---------------------------|----------------------------------------------------|
|G|*-------------------------*|----------------------------------------------------|
|D|-0h20h2-------0h20h20h20h2-|---------0h20h2-------0h20h20h20h20h20h20h20h20h20h2|
|A|*-------------------------*|----------------------------------------------------|
|E|-------0000000-------------|000000000------0000000------------------------------|
|         .......              .........      .......  p.m.
| gtr. 2.
|E|---------------------------|----------------------------------------------------|
|B|---------------------------|----------------------------------------------------|
|G|*-------------------------*|----------------------------------------------------|
|D|---------------------------|----------------------------------------------------|
|A|*5h75h7-------5h75h75h75h7*|---------5h75h7-------5h75h75h75h75h75h75h75h75h75h7|
\E|-------0000000-------------|000000000------0000000------------------------------|
          .......              .........

   gtr.1                         gtr. 1 & 2 Interlude
/E|-----------------------------|-------------------------------------|
|B|-----------------------------|-------------------------------------|
|G|-----------------------------|*--------7~-------------5~-5-4x4----*|
|D|-------0h20h20h20h2------0h2-|-2~---2--7~---2--3~--2--5~-5-4x4--2--|
|A|-----------------------------|*2~---2--5~---2--3~--2--3~-3-2x2--2-*|
|E|0000000------------000000----|-0~--000-----000-1~-000----------000-|
|  .......            ......          . .     . .    . .          . . p.m.
|
|  gtr. 2
|E|-----------------------------|
|B|-----------------------------|
|G|-----------------------------|
|D|-----------------------------|
|A|-------5h75h75h75h7------5h7-|
\E|0000000------------000000----|
   .......

E|--------------|
B|--------------|
G|--------------|
D|--------------|
A|--------------|
E|00000000000000|
  .............. p.m.


Solo 3: *gtr.1 & 2 plays bridge 1
gtr.3

still working on it.

Bridge 2:
gtr. 1 & 2
/E|------------------------------------------------------------------------|
|B|------------------------------------------------------------------------|
|G|------------7~--7-------------/7~----7------------------5~---4---4~-----|
|D|2~--2----2--7~--7----2--2-2-2-/7~----7---2--3~------2---5~---4---4~-----|
|A|2~--2----2--5~--5----2--2-2-2-/5~----5---2--3~------2---3~--020--2~-----|
|E|0~--0---000---------000-0-0-0-----------000-1~-----000------------------|
|          . .         . .                 . .        . .             p.m.
|gtr. 3
|E|------------------------------------------------------------------------|
|B|------------------------------------------------------------------------|
|G|------------------------------------------------------------------------|
|D|------------------------------------------------------------------------|
|A|-----------------------7-7-5-/9~--9-9-7-/10-9-8~--8-8-10-8-7~--6-6-7-9-7|
\E|------------------------------------------------------------------------|
  gtr. 1 & 2
/E|------------------------------------------------------|
|B|------------------------------------------------------|
|G|*------------------7~------------------------5---4--4*|
|D|---2---2~------2---7~-------2---3~-------2---5---4--4-|
|A|*--2---2~------2---5~-------2---3~-------2---3--020-2*|
|E|--000--0~-----000----------000--1~------000-----------|
|    . .         . .           . .          . .      p.m.
|gtr. 3
|E|------------------------------------------------------|
|B|------------------------------------------------------|
|G|*----------------------------------------------------*|
|D|------------------------------------------------------|
|A|*---7-7-5-/9~--9-9-7-/10-9-8~--8-8-10-8-7~--6-6-7-9-7*|
\E|------------------------------------------------------|

 gtr. 1 & 2
/E|------------------------------------------------------|
|B|------------------------------------------------------|
|G|-------------------7~------------------------5---4--4-|
|D|---2---2~------2---7~-------2---3~-------2---5---4--4-|
|A|---2---2~------2---5~-------2---3~-------2---3--020-2-|
|E|--000--0~-----000----------000--1~------000-----------|
|    . .         . .           . .          . .      p.m.
|gtr. 3
|E|------------------------------------------------------|
|B|------------------------------------------------------|
|G|*----------------------------------------------------*|
|D|------------------------------------------------------|
|A|*---7-7-5-/9~--9-9-7-/10-9-8~--8-8-10-8-7~--6-6-7-9-7*|
|E|------------------------------------------------------|
|
|gtr. 4
|E|------------------------------------------------------|
|B|------------------------------------------------------|
|G|-----------------------4-7-5~--5-5-7--5--------------*|
|D|----5-5-4-5-/7-7-7-5-7------------------5~--4-4-5-7-5-|
|A|-----------------------------------------------------*|
\E|------------------------------------------------------|

gtr. 1 & 2
/E|------------------------------------------------------|
|B|------------------------------------------------------|
|G|-------------------7~------------------------5---4--4-|
|D|---2---2~------2---7~-------2---3~-------2---5---4--4-|
|A|---2---2~------2---5~-------2---3~-------2---3--020-2-|
|E|--000--0~-----000----------000--1~------000-----------|
|    . .         . .           . .          . .      p.m.
|gtr. 3
|E|-------------------------------------------------------|
|B|-----------------------121513~-13131513----------------|
|G|---1212111214~-14141214----------------12~--1212111412~|
|D|-------------------------------------------------------|
|A|-------------------------------------------------------|
|E|-------------------------------------------------------|
|
|gtr. 4
|E|-------------------------------------------------------|
|B|-------------------------------------------------------|
|G|-----------------------161917~-17171917----------------|
|D|---1717161719~-19191719----------------17~--1616171917~|
|A|-------------------------------------------------------|
\E|-------------------------------------------------------|


Outro:
 gtr. 1 & 2
E|---------------------------------------------|
B|---------------------------------------------|
G|----------7--7~-------------5--5~----4-4-4-4~|
D|-2--2~----7--7~----3--3~----5--5~----4-4-4-4~|
A|-2--2~---050-5~----3--3~---030-3~----2-2-2-2~|
E|000-0~------------010-1~---------------------|
  . .      . .      . .      . .       . . . . p.m.
E|-----------------------------------------------------------------------------|
B|-----------------------------------------------------------------------------|
G|----------------7--7~-7-7-7-7-----------------5--5~-4-4-4-4--4-4-4-4--4-4-4-4|
D|-2--2~-2-2-2-2--7--7~-7-7-7-7--3--3~-3-3-3-3--5--5~-4-4-4-4--4-4-4-4--4-4-4-4|
A|-2--2~-2-2-2-2-050-5~-5-5-5-5--3--3~-3-3-3-3-030-3~-2-2-2-2--2-2-2-2--2-2-2-2|
E|000-0~-0-0-0-0----------------010-1~-1-1-1-1---------------------------------|
  . .            . .            . .            . .    . . . .  . . . .  . . .

 gtr. 1
/E|-----------------------------------------------|
|B|2----------------------------------------------|
|G|2----------------------------------------------|
|D|0---------2~-----------------------------------|
|A|--/10-9v~-2~----------------------------/1010--|
|E|----------0~-----------------------------------|
|            = tremelo picking
| gtr. 2
|E|-----------------------------------------------|
|B|2----------------------------------------------|
|G|2----------------------------------------------|
|D|0---------2~-----------------------------------|
|A|----------2~-----------------------------------|
|E|--/12-11v-0~----------------------------/1212--|
             = tremelo picking
End (for now)
Добавлено: 10.07.2012
Другие материалы по этой песне:

Страница создана 06.05.2012
http://primanota.ru/bullet-for-my-valentine/welcome-home-sanitarium-chords.htm
Привет, Гость.
Предлагаем пройти революционный курс по гитаре.
Подарок от PrimaNota.Ru, забирай!