PrimaNota.ru - самый крупный в мире бесплатный архив песенных текстов, аккордов, табулатур и нот


Bullet For My Valentine - Ashes Of The Innocent - текст песни, таба, видео

Регистрация Запомнить меня
Войти через:  Facebook Google Twitter Vk Yandex Mail.ru

Bullet For My Valentine - Ashes Of The Innocent - текст песни, таба, видео

Печатать
Просмотров: 308
-------------------------------------------------------------------------------
	   ASHES OF THE INNOCENT - Bullet For My Valentine
-------------------------------------------------------------------------------
Tabbed by: Brad
Email: Fallofeden522@yahoo.com

Tuning: Drop C
Both Guitars Intro/Guitar 1 Verse x2
Intro x1
e|-------------------------------------------------------------------------------|
B|-------------------------------------------------------------------------------|
G|-------------------------------------------------------------------------------|
D|--7--6---------4--7--6---------4----7--6---------4--7--6--6h7p6p4-6h7p4--------|
A|--------7--7--7---------7--7--7--7--------7--7--7------------------------------|
E|44-44-44-44-44--44-44-44-44-44----00-00-00-00-00--00-00-00---------------------|
  .. .. .. .. ..  .. .. .. .. ..    .. .. .. .. ..  .. .. ..
Verse
Guitar 2
x2
e|---------------------------------------------------------------------------|
B|---------------------------------------------------------------------------|
G|--6--4-------------6--4---------------6--4------------6--4---4h6p4-4h6-----|
D|--------6--6--6h7--------6--6--6h7p6--------6--6--6h7-------------7---7----|
A|---------------------------------------------------------------------------|
E|44-44-44-44-44---44-44-44-44-44-----00-00-00-00-00---00-00-00--------------|
  .. .. .. .. ..   .. .. .. .. ..     .. .. .. .. ..   .. .. ..

Chorus Both Guitars
x2
e|---------------------------------------------------------------------------|
B|---------------------------------------------------------------------------|
G|4-44-6-4-44-6-11-11-9-6-4--------------------------------------------------|
D|4-44-4-4-44-4-0--0--0-0-2--------------------------------------------------|
A|4-44-4-4-44-4-0--0--0-0-2--------------------------------------------------|
E|4-44-4-4-44-4-0--0--0-0-2--------------------------------------------------|

Then play the verse and chorus again, and then the solo.  Im too lazy to tab it out, but 
tab the rhythm.

Guitar 1
e|---------------------------------------------------------------------------|
B|---------------------------------------------------------------------------|
G|---------------------------------------------------------------------------|
D|0-0-7p6--0-00-0-0-7p6--0-00-7vb-4-4-444-4-4-4-4-444-4-4--------------------|
A|0-0----7-0-00-0-0----7-0-00-----4-4-444-4-4-4-4-444-4-4--------------------|
E|0-0------0-00-0-0------0-00-----4-4-444-4-4-4-4-444-4-4--------------------|
  . .           . .                   ...         ...

Guitar 2
E|---------------------------------------------------------------------------|
B|---------------------------------------------------------------------------|
G|----6p4-----------6p4-------6vb--------------------------------------------|
D|0-0----6-0-00-0-0----6-0-00-----4-4-444-4-4-4-4-444-4-4--------------------|
A|0-0------0-00-0-0------0-00-----4-4-444-4-4-4-4-444-4-4--------------------|
E|0-0------0-00-0-0------0-00-----4-4-444-4-4-4-4-444-4-4--------------------|
  . .           . .                   ...         ...
Both non soloing guitars
e|---------------------------------------------------------------------------|
B|--------------------4-6-4--------4-6-4---------4-6-4-----------------------|
G|-------6-4-6---------------------------------------------------------------|
D|0-0-0-0------2-2-2-2------4-4-4-4-------4-4-4-4----------------------------|
A|0-0-0-0------2-2-2-2------4-4-4-4-------4-4-4-4----------------------------|
E|0-0-0-0------2-2-2-2------4-4-4-4-------4-4-4-4----------------------------|
  . . .        . . .        . . .
Over The above rhythm:
e|---------------------------------------------------------------------------|
B|---------------------------------------------------------------------------|
G|---------------------------------------------------------------------------|
D|7~~~~~~7-9-6~~~~~~~~~4/7~~~~~~~~~~~~4/7~~~~~~~~~~~~~~----------------------|
A|---------------------------------------------------------------------------|
E|---------------------------------------------------------------------------|
Harmony:
e|---------------------------------------------------------------------------|
B|---------------------------------------------------------------------------|
G|6~~~~~~6-7-4~~~~~~~~~2/6~~~~~~~~~~~~~2/6~~~~~~~~~~~~~~---------------------|
D|---------------------------------------------------------------------------|
A|---------------------------------------------------------------------------|
E|---------------------------------------------------------------------------|

Then intro, verse and chorus (x2), and there it is.  This better get accepted because I 
up till 12 working on it.
Добавлено: 09.11.2013
Другие материалы по этой песне:

Страница создана 05.06.2012
http://primanota.ru/bullet-for-my-valentine/ashes-of-the-innocent-chords.htm
Привет, Гость.
Предлагаем пройти революционный курс по гитаре.
Подарок от PrimaNota.Ru, забирай!