PrimaNota.ru - самый крупный в мире бесплатный архив песенных текстов, аккордов, табулатур и нот


Buddy Guy - Everyday I Have The Blues - текст песни, таба, видео

Регистрация Запомнить меня
Войти через:  Facebook Google Twitter Vk Yandex Mail.ru

Buddy Guy - Everyday I Have The Blues - текст песни, таба, видео

Печатать
Просмотров: 252
Уроки эстрадного вокала в Санкт-Петербурге
                                    BUDDY GUY
                            Everday (I Have The Blues)
 


Lead Guitar:

     E   E     E   E  Q    H           E   E  E   E   E  E   E  E   E  E   E   
E||-----11--|--8--------------------|-----11--8--10------8--------------------|
B||-----11--|--8--10----------------|----------------10-----11--8------8------|
G||---------|-----------------------|------------------------------11-----10--|
D||---------|-----------------------|-----------------------------------------|
A||---------|-----------------------|-----------------------------------------|
E||---------|-----------------------|-----------------------------------------|


  |---3---|                   |---3--|   |---3---|  |---3--|          
  E   E   E  Q    H           E   E  E   E   E   E  E   E  E   Q      
---------------------------|--8--11--8-------------------------------|
---------------------------|--8--------------8-----------------------|
--9------------------------|------------10b-----10--9------9--10b----|
-----10--------------------|---------------------------10------------|
---------10----------------|-----------------------------------------|
---------------------------|-----------------------------------------|


   Prebend                                                    
                                      |---3--|                
   E      E   H.               E   E  E   E  E  S  E.   Q     
----------------------------|--------------------------------|
----------------------------|----------------8---------------|
--10br----8-----------------|---------8--10-----8------------|
-------------10~------------|-----10--------------10~---L----|
----------------------------|--------------------------------|
----------------------------|--------------------------------|


                            |---3---|  |-----3----|              
  E  E  H        E   E      E   E   E  Q    Q     Q    T  S. E   
--------------------11--|--10p--8------8------------------------|
--8--8------------------|----------10--8----8----------------8--|
--8--9------------------|------------------------10----8h-9-----|
------------------------|---------------------------------------|
------------------------|---------------------------------------|
------------------------|---------------------------------------|


   E   Q.      H           Q     T  S. Q.       E   E    
--10--------------------|-------------------------------|
------10~---------------|-------------13~------15--15b--|
------------------------|-------12-14-------------------|
------------------------|-------------------------------|
------------------------|-------------------------------|
------------------------|-------------------------------|


  Q    H        E   E      Q     E  Q     E   E   E    
------------------------|-----------------------------|
--L----------------13~--|--L-----------------13--13~--|
------------------------|-------14-------14-----------|
------------------------|-----------------------------|
------------------------|-----------------------------|
------------------------|-----------------------------|


                                                 |---3---|   
  Q     E   Q.      Q       E   Q.      E   E    E   E   E   
-------------------------|-----15b---------13b--13--12------|
--L----15--15b-----------|------------------------------13--|
-------------------------|----------------------------------|
-------------------------|----------------------------------|
-------------------------|----------------------------------|
-------------------------|----------------------------------|


   Q      E  H         E      Q.      Q.       E   E    
---------------------------|---------13b------13-------|
--13~----13-----------15b--|--L-------------------15b--|
---------14----------------|---------------------------|
---------------------------|---------------------------|
---------------------------|---------------------------|
---------------------------|---------------------------|


                                     |---3---|                  
   H         E  E   E   E       Q    E   E   E   Q     E   E    
-----------------------------|---------------------------------|
--13~--------L-----13--15br--|--L----L--13------13----15--15b--|
-----------------------------|--------------14-----------------|
-----------------------------|---------------------------------|
-----------------------------|---------------------------------|
-----------------------------|---------------------------------|


                                                |---3--|   
  Q    H        E  E     E  E   E  T  S. E  E   E  E   E   
-------------------8--|--L-------------------------8--10--|
--L----------------8--|--L--8---------------8--10---------|
----------------------|--------10--8h-9--L----------------|
----------------------|-----------------------------------|
----------------------|-----------------------------------|
----------------------|-----------------------------------|


   Q     Q    H           E   Q      S  S Q     E   E   
--10b------------------|-----10br----8----8------------|
-----------------------|---------------10-8----10------|
-----------------------|-----------------------10------|
-----------------------|---------------------------10--|
-----------------------|-------------------------------|
-----------------------|-------------------------------|


                                              Second solo          
  T  S.  E   H         E  E     Q    Q    E   E           E   E    
-----------------------------|------------------------------------|
-----8--------------------8--|--L------------13----------13--13~--|
--8h-9--------------------9--|--L---------------------------------|
--------10--10~--------L-----|------------------------------------|
-----------------------------|------------------------------------|
-----------------------------|------------------------------------|


  Q.      Q.       Q        Q    Q    H            E   E   H          Q      
---------11b------13b----|--L------------------|--13--11-------------11b----|
--L----------------------|---------------------|----------13~---------------|
-------------------------|---------------------|----------------------------|
-------------------------|---------------------|----------------------------|
-------------------------|---------------------|----------------------------|
-------------------------|---------------------|----------------------------|


   E   E   Q      E    E  Q       Q    E   E    H         
--13--12---------11b--13-------|----------13br--L--------|
----------13~------------------|-------------------------|
-------------------------------|-------------------------|
-------------------------------|-------------------------|
-------------------------------|-------------------------|
-------------------------------|-------------------------|


  E   E   H.                Q     E   Q     Q.        
--L--11-----------------|--11----13--15----13b~------|
---------13~------------|--11------------------------|
------------------------|----------------------------|
------------------------|----------------------------|
------------------------|----------------------------|
------------------------|----------------------------|


           Prebend                                                
  Q    E   Q       E   E   E      E   E   Q     E    E   E    E   
--L-------13br----11--13--11--|--12--13--13----13p--12--13p--12--|
------------------------------|----------------------------------|
------------------------------|----------------------------------|
------------------------------|----------------------------------|
------------------------------|----------------------------------|
------------------------------|----------------------------------|


   E   Q      Q.       E   E     E   E   H.             
--13--13b----11b------13--11--|-----11-----------------|
------------------------------|---------13~------------|
------------------------------|------------------------|
------------------------------|------------------------|
------------------------------|------------------------|
------------------------------|------------------------|


  Q     H         E   E      Q     E    Q      E    Q      
--------------------------|-------------------------------|
--L----13~--------L--13~--|--L----13~--13~----13~--13~----|
--------------------------|-------------------------------|
--------------------------|-------------------------------|
--------------------------|-------------------------------|
--------------------------|-------------------------------|


        Hold bend---\                                                 
   E    E             E   H         E      E   E   Q      Q     Q     
--13b--13b-----------13b-----------13b--|--L--11---------11b---------|
----------------------------------------|---------13~----------------|
----------------------------------------|----------------------------|
----------------------------------------|----------------------------|
----------------------------------------|----------------------------|
----------------------------------------|----------------------------|


        Hold bend---\                              Only half release      
   E    E             E   H         E      Q.      Q.               Q     
--13b--13b-----------13b-----------13b--|--L------11br--------------L----|
----------------------------------------|--------------------------------|
----------------------------------------|--------------------------------|
----------------------------------------|--------------------------------|
----------------------------------------|--------------------------------|
----------------------------------------|--------------------------------|


                    |----3---|                             
   H         E  E   E   E    E     E  E   H          Q     
--------------------------------|-------------------------|
--13~-----------8---------------|--8----------------------|
-------------------10p--8h--10--|-----8-------------------|
--------------------------------|--------10~--------10----|
--------------------------------|-------------------------|
--------------------------------|-------------------------|


                                               |---3--|   
  E  E  H        E   E     E  E   E  E  E  E   E  E   E   
---------------------8--|--L----------------------8--10--|
--------------------10--|--L--8------------8--10---------|
--8--9---------------9--|--L--9--10--8--9----------------|
------------------------|--------10----------------------|
------------------------|--------------------------------|
------------------------|--------------------------------|


                                            |---3--|   |---3--|   
   E   E  E   Q.      E  E      E   Q.      E   E  E   E  E   E   
--10b--8--------------------|---------------8--------------------|
----------8-----------8--8--|--12--13~------8--11--8-------------|
-------------10~------------|-------------------------10--8--10--|
----------------------------|------------------------------------|
----------------------------|------------------------------------|
----------------------------|------------------------------------|


  E   Q.      T  S. E   E  T  S.    Q     E   Q.     Q     
---------------------------------|------------------------|
------------------------------8--|--L---------------------|
--8-----------8h-9--L--10--8h-9--|--L---------------------|
-----10~-------------------------|-------10---------------|
---------------------------------|-----------10-----------|
---------------------------------|------------------------|


                                    Prebend   Prebend    
   S  S  S S  S  S  S S  S  S  S S  S      S  S       S  
--------------------------------------------------------|
------8-11-8-----8-11-8-----8-11-8---------8---------11-|
--10b--------10b--------10b--------10b-------10b--------|
--------------------------------------------------------|
--------------------------------------------------------|
--------------------------------------------------------|


                                    Prebend   Prebend    
   S  S  S S  S  S  S S  S  S  S S  S      S  S       S  
--------------------------------------------------------|
------8-11-8-----8-11-8-----8-11-8---------8---------11-|
--10b--------10b--------10b--------10b-------10b--------|
--------------------------------------------------------|
--------------------------------------------------------|
--------------------------------------------------------|


                                    Prebend   Prebend    
   S  S  S S  S  S  S S  S  S  S S  S      S  S       S  
--------------------------------------------------------|
------8-11-8-----8-11-8-----8-11-8---------8---------11-|
--10b--------10b--------10b--------10b-------10b--------|
--------------------------------------------------------|
--------------------------------------------------------|
--------------------------------------------------------|


                                    Prebend   Prebend    
   S  S  S S  S  S  S S  S  S  S S  S      S  S       S  
--------------------------------------------------------|
------8-11-8-----8-11-8-----8-11-8---------8---------11-|
--10b--------10b--------10b--------10b-------10b--------|
--------------------------------------------------------|
--------------------------------------------------------|
--------------------------------------------------------|


                                                      Prebends-        
                                                |-------3-------|      
   Q      S S  S S  S S  S S  Q        H        Q     Q         Q      
--11b----11-8----8------------------|---------------------------------|
--------------10--------------------|---------------------------------|
-------------------10-8----8-10b----|--L-------------10b-------10b----|
------------------------10----------|---------------------------------|
------------------------------------|---------------------------------|
------------------------------------|---------------------------------|


   |----3----|                                        
   Q    Q    Q     E   E   Q        W                 
---------------------------------|-------------------|
---------------------------------|-------------------|
--10----9----8----10b--8---------|-------------------|
--------------------------10~----|--L----------------|
---------------------------------|-------------------|
---------------------------------|-------------------|


  Q    T S. Q.       E  E     Q    E  E  E  E   E  E   
---------------------------|----------8---------------|
------------8~-------------|-------8--------8---------|
--8----8-9----------10-----|-------------------10--8--|
---------------------------|--------------------------|
---------------------------|--------------------------|
---------------------------|--------------------------|


  E   E   H         E  E     Q    Q    H          
--------------------8-----|---------------------||
--------------------8--8--|--L------------------||
--9--------------------9--|--L------------------||
-----10--10~--------------|---------------------||
--------------------------|---------------------||
--------------------------|---------------------||










Rhythm Guitar:

     Q       E  E  E  E  E  E  Q       E  E  E  E  E  E  Q     
E||--2----|--x-----x--x--x--x--2----|--3-----x--x--x--x--2----|
B||--2----|--x-----x--x--x--x--2----|--3-----x--x--x--x--2----|
G||--2----|--x-----x--x--x--x--2----|--3-----x--x--x--x--2----|
D||--1----|--x-----x--x--x--x--1----|--2-----x--x--x--x--1----|
A||--2----|--x-----x--x--x--x--2----|--3-----x--x--x--x--2----|
E||-------|-------------------------|-------------------------|


  E  E  E  E  E  E  E  E     E  E  E  E  E  E  Q       E  E  E  E  E  E  Q     
--3-----x--x--3--3--3--2--|--3-----x--x--3--3--7----|--8-----x--8--x--x--7----|
--3-----x--x--3--3--3--2--|--3-----x--x--3--3--7----|--8-----x--8--x--x--7----|
--3-----x--x--3--3--3--2--|--3-----x--x--3--3--7----|--8-----x--8--x--x--7----|
--2-----x--x--2--2--2--1--|--2-----x--x--2--2--6----|--7-----x--7--x--x--6----|
--3-----x--x--3--3--3--2--|--3-----x--x--3--3--7----|--8-----x--8--x--x--7----|
--------------------------|-------------------------|-------------------------|


  E  E  E  E  E  E  Q       E  E  E  E  E  E  Q       E  E  E  E  E  E  Q     
--8-----x--x--x--x--2----|--3-----x--x--x--x--2----|--3-----x--x--x--x--9----|
--8-----x--x--x--x--2----|--3-----x--x--x--x--2----|--3-----x--x--x--x--9----|
--8-----x--x--x--x--2----|--3-----x--x--x--x--2----|--3-----x--x--x--x--9----|
--7-----x--x--x--x--1----|--2-----x--x--x--x--1----|--2-----x--x--x--x--8----|
--8-----x--x--x--x--2----|--3-----x--x--x--x--2----|--3-----x--x--x--x--9----|
-------------------------|-------------------------|-------------------------|


   E  Q     E  Q    Q       E  E  E  Q.     Q       E  E  E  E  E  E  Q     
--10-------10--9----7----|--8-----7--8------2----|--3--x--x--3-----3--2----|
--10-------10--9----7----|--8-----7--8------2----|--3--x--x--3-----3--2----|
--10-------10--9----7----|--8-----7--8------2----|--3--x--x--3-----3--2----|
---9--------9--8----6----|--7-----6--7------1----|--2--x--x--2-----2--1----|
--10-------10--9----7----|--8-----7--8------2----|--3--x--x--3-----3--2----|
-------------------------|-----------------------|-------------------------|


  E  E  Q    E  E  Q       E  E  E  E  E  E  Q       E  E  E  E  E  E  Q     
--3--x--4----3--x--2----|--x-----x--x--x--x--7----|--8-----x--x--x--x--2----|
--3--x--4----3--x--2----|--x-----x--x--x--x--7----|--8-----x--x--x--x--2----|
--3--x--4----3--x--2----|--x-----x--x--x--x--7----|--8-----x--x--x--x--2----|
--2--x--3----2--x--1----|--x-----x--x--x--x--6----|--7-----x--x--x--x--1----|
--3--x--4----3--x--2----|--x-----x--x--x--x--7----|--8-----x--x--x--x--2----|
------------------------|-------------------------|-------------------------|


  E  E  E  E  E  E  E  E     E  E  E  E  E  E  Q       E  E  E  E  E  E  Q     
--3-----x--x--3--3--3--2--|--3-----x--x--3--3--7----|--8-----x--8--x--x--7----|
--3-----x--x--3--3--3--2--|--3-----x--x--3--3--7----|--8-----x--8--x--x--7----|
--3-----x--x--3--3--3--2--|--3-----x--x--3--3--7----|--8-----x--8--x--x--7----|
--2-----x--x--2--2--2--1--|--2-----x--x--2--2--6----|--7-----x--7--x--x--6----|
--3-----x--x--3--3--3--2--|--3-----x--x--3--3--7----|--8-----x--8--x--x--7----|
--------------------------|-------------------------|-------------------------|


  E  E  E  E  E  E  Q       E  E  E  E  E  E  Q       E  E  E  E  E  E  Q     
--8-----x--x--x--x--2----|--3-----x--x--x--x--2----|--3-----x--x--x--x--9----|
--8-----x--x--x--x--2----|--3-----x--x--x--x--2----|--3-----x--x--x--x--9----|
--8-----x--x--x--x--2----|--3-----x--x--x--x--2----|--3-----x--x--x--x--9----|
--7-----x--x--x--x--1----|--2-----x--x--x--x--1----|--2-----x--x--x--x--8----|
--8-----x--x--x--x--2----|--3-----x--x--x--x--2----|--3-----x--x--x--x--9----|
-------------------------|-------------------------|-------------------------|


   E  Q     E  Q    Q       E  E  E  Q.     Q       E  E  E  E  E  E  Q     
--10-------10--9----7----|--8-----7--8------2----|--3--x--x--3-----3--2----|
--10-------10--9----7----|--8-----7--8------2----|--3--x--x--3-----3--2----|
--10-------10--9----7----|--8-----7--8------2----|--3--x--x--3-----3--2----|
---9--------9--8----6----|--7-----6--7------1----|--2--x--x--2-----2--1----|
--10-------10--9----7----|--8-----7--8------2----|--3--x--x--3-----3--2----|
-------------------------|-----------------------|-------------------------|


  E  E  Q    E  E  Q       H        Q    E  E     E  E  E  E  E  E  Q     
--3--x--4----3--x--2----|-------------------3--|--x-----x--x--x--x--7----|
--3--x--4----3--x--2----|-------------------3--|--x-----x--x--x--x--7----|
--3--x--4----3--x--2----|-------------------3--|--x-----x--x--x--x--7----|
--2--x--3----2--x--1----|-------------------2--|--x-----x--x--x--x--6----|
--3--x--4----3--x--2----|-------------------3--|--x-----x--x--x--x--7----|
------------------------|----------------------|-------------------------|


  E  E  E  E  E  E  Q       E  E  E  E  E  E  E  E     E  E  E  E  E  E  Q     
--8-----x--x--x--x--2----|--3-----x--x--3--3--3--2--|--3-----x--x--3--3--7----|
--8-----x--x--x--x--2----|--3-----x--x--3--3--3--2--|--3-----x--x--3--3--7----|
--8-----x--x--x--x--2----|--3-----x--x--3--3--3--2--|--3-----x--x--3--3--7----|
--7-----x--x--x--x--1----|--2-----x--x--2--2--2--1--|--2-----x--x--2--2--6----|
--8-----x--x--x--x--2----|--3-----x--x--3--3--3--2--|--3-----x--x--3--3--7----|
-------------------------|--------------------------|-------------------------|


  E  E  E  E  E  E  Q       E  E  E  E  E  E  Q       E  E  E  E  E  E  Q     
--8-----x--8--x--x--7----|--8-----x--x--x--x--2----|--3-----x--x--x--x--2----|
--8-----x--8--x--x--7----|--8-----x--x--x--x--2----|--3-----x--x--x--x--2----|
--8-----x--8--x--x--7----|--8-----x--x--x--x--2----|--3-----x--x--x--x--2----|
--7-----x--7--x--x--6----|--7-----x--x--x--x--1----|--2-----x--x--x--x--1----|
--8-----x--8--x--x--7----|--8-----x--x--x--x--2----|--3-----x--x--x--x--2----|
-------------------------|-------------------------|-------------------------|


  E  E  E  E  E  E  Q        E  Q     E  Q    Q       E  E  E  Q.     Q     
--3-----x--x--x--x--9----|--10-------10--9----7----|--8-----7--8------2----|
--3-----x--x--x--x--9----|--10-------10--9----7----|--8-----7--8------2----|
--3-----x--x--x--x--9----|--10-------10--9----7----|--8-----7--8------2----|
--2-----x--x--x--x--8----|---9--------9--8----6----|--7-----6--7------1----|
--3-----x--x--x--x--9----|--10-------10--9----7----|--8-----7--8------2----|
-------------------------|-------------------------|-----------------------|


  E  E  E  E  E  E  Q       E  E  Q    E  E  Q       E  E  E  E  E  E  Q     
--3--x--x--3-----3--2----|--3--x--4----3--x--2----|--x-----x--x--x--x--7----|
--3--x--x--3-----3--2----|--3--x--4----3--x--2----|--x-----x--x--x--x--7----|
--3--x--x--3-----3--2----|--3--x--4----3--x--2----|--x-----x--x--x--x--7----|
--2--x--x--2-----2--1----|--2--x--3----2--x--1----|--x-----x--x--x--x--6----|
--3--x--x--3-----3--2----|--3--x--4----3--x--2----|--x-----x--x--x--x--7----|
-------------------------|------------------------|-------------------------|


  E  E  E  E  E  E  Q       E  E  E  E  E  E  E  E     E  E  E  E  E  E  Q     
--8-----x--x--x--x--2----|--3-----x--x--3--3--3--2--|--3-----x--x--3--3--7----|
--8-----x--x--x--x--2----|--3-----x--x--3--3--3--2--|--3-----x--x--3--3--7----|
--8-----x--x--x--x--2----|--3-----x--x--3--3--3--2--|--3-----x--x--3--3--7----|
--7-----x--x--x--x--1----|--2-----x--x--2--2--2--1--|--2-----x--x--2--2--6----|
--8-----x--x--x--x--2----|--3-----x--x--3--3--3--2--|--3-----x--x--3--3--7----|
-------------------------|--------------------------|-------------------------|


  E  E  E  E  E  E  Q       E  E  E  E  E  E  Q       E  E  E  E  E  E  Q     
--8-----x--8--x--x--7----|--8-----x--x--x--x--2----|--3-----x--x--x--x--2----|
--8-----x--8--x--x--7----|--8-----x--x--x--x--2----|--3-----x--x--x--x--2----|
--8-----x--8--x--x--7----|--8-----x--x--x--x--2----|--3-----x--x--x--x--2----|
--7-----x--7--x--x--6----|--7-----x--x--x--x--1----|--2-----x--x--x--x--1----|
--8-----x--8--x--x--7----|--8-----x--x--x--x--2----|--3-----x--x--x--x--2----|
-------------------------|-------------------------|-------------------------|


  E  E  E  E  E  E  Q        E  Q     E  Q    Q       E  E  E  Q.     Q     
--3-----x--x--x--x--9----|--10-------10--9----7----|--8-----7--8------2----|
--3-----x--x--x--x--9----|--10-------10--9----7----|--8-----7--8------2----|
--3-----x--x--x--x--9----|--10-------10--9----7----|--8-----7--8------2----|
--2-----x--x--x--x--8----|---9--------9--8----6----|--7-----6--7------1----|
--3-----x--x--x--x--9----|--10-------10--9----7----|--8-----7--8------2----|
-------------------------|-------------------------|-----------------------|


  E  E  E  E  E  E  Q       E  E  Q    E  E  Q       E  E  E  E  E  E  Q     
--3--x--x--3-----3--2----|--3--x--4----3--x--2----|--x-----x--x--x--x--7----|
--3--x--x--3-----3--2----|--3--x--4----3--x--2----|--x-----x--x--x--x--7----|
--3--x--x--3-----3--2----|--3--x--4----3--x--2----|--x-----x--x--x--x--7----|
--2--x--x--2-----2--1----|--2--x--3----2--x--1----|--x-----x--x--x--x--6----|
--3--x--x--3-----3--2----|--3--x--4----3--x--2----|--x-----x--x--x--x--7----|
-------------------------|------------------------|-------------------------|


  E  E  E  E  E  E  Q       E  E  E  E  E  E  E  E     E  E  E  E  E  E  Q     
--8-----x--x--x--x--2----|--3-----x--x--3--3--3--2--|--3-----x--x--3--3--7----|
--8-----x--x--x--x--2----|--3-----x--x--3--3--3--2--|--3-----x--x--3--3--7----|
--8-----x--x--x--x--2----|--3-----x--x--3--3--3--2--|--3-----x--x--3--3--7----|
--7-----x--x--x--x--1----|--2-----x--x--2--2--2--1--|--2-----x--x--2--2--6----|
--8-----x--x--x--x--2----|--3-----x--x--3--3--3--2--|--3-----x--x--3--3--7----|
-------------------------|--------------------------|-------------------------|


  E  E  E  E  E  E  Q       E  E  E  E  E  E  Q       E  E  E  E  E  E  Q     
--8-----x--8--x--x--7----|--8-----x--x--x--x--2----|--3-----x--x--x--x--2----|
--8-----x--8--x--x--7----|--8-----x--x--x--x--2----|--3-----x--x--x--x--2----|
--8-----x--8--x--x--7----|--8-----x--x--x--x--2----|--3-----x--x--x--x--2----|
--7-----x--7--x--x--6----|--7-----x--x--x--x--1----|--2-----x--x--x--x--1----|
--8-----x--8--x--x--7----|--8-----x--x--x--x--2----|--3-----x--x--x--x--2----|
-------------------------|-------------------------|-------------------------|


  E  E  E  E  E  E  Q        E  Q     E  Q    Q       E  E  E  Q.     Q     
--3-----x--x--x--x--9----|--10-------10--9----7----|--8-----7--8------2----|
--3-----x--x--x--x--9----|--10-------10--9----7----|--8-----7--8------2----|
--3-----x--x--x--x--9----|--10-------10--9----7----|--8-----7--8------2----|
--2-----x--x--x--x--8----|---9--------9--8----6----|--7-----6--7------1----|
--3-----x--x--x--x--9----|--10-------10--9----7----|--8-----7--8------2----|
-------------------------|-------------------------|-----------------------|


  E  E  E  E  E  E  Q       E  E  Q    H          
--3--x--x--3-----3--2----|--3--x--3-------------||
--3--x--x--3-----3--2----|--3--x--3-------------||
--3--x--x--3-----3--2----|--3--x--3-------------||
--2--x--x--2-----2--1----|--2--x--2-------------||
--3--x--x--3-----3--2----|--3--x--3-------------||
-------------------------|----------------------||




Duration Legend
---------------
W - whole
H - half
Q - quarter
E - 8th
S - 16th
T - 32nd
X - 64th
. - note dotted
|-n-|  - n-tuplets


Tablature Legend
----------------
L - tied note
x - dead note
g - grace note
(n) - ghost note
> - accentuded note
NH - natural harmonic
AH - artificial harmonic
TH - tapped harmonic
SH - semi harmonic
PH - pitch harmonic
h - hammer on
p - pull off
b - bend
br - bendRelease
pb - preBend
pbr - preBendRelease
brb - bendReleaseBend
\n/ - tremolo bar dip
\n - tremolo bar dive
-/n - tremolo bar Release up
/n\ - tremolo bar inverted dip
/n - tremolo bar return
-\n - tremolo bar Release down
S - shift slide
s - legato slide
/ -  slide into from below or out of upwards
\ -  slide into from above or out of downwards
~ - vibrato
W - wide vibrato
tr - trill
TP - tremolo picking
T - tapping
S - slap
P - pop
< - fade in
^ - brush up
v - brush down
Добавлено: 15.07.2012
Другие материалы по этой песне:

Страница создана 18.04.2012
http://primanota.ru/buddy-guy/everyday-i-have-the-blues-chords.htm
Привет, Гость.
Предлагаем пройти революционный курс по гитаре.
Подарок от PrimaNota.Ru, забирай!