PrimaNota.ru - самый крупный в мире бесплатный архив песенных текстов, аккордов, табулатур и нот


Bruce Dickinson - Machine Men - текст песни, таба, видео

Регистрация Запомнить меня
Войти через:  Facebook Google Twitter Vk Yandex Mail.ru

Bruce Dickinson - Machine Men - текст песни, таба, видео

Печатать
Просмотров: 153
intro (there's also solo gtr on the bground i didn't figure out)
e-----------------------------------------------|
b-----------------------------------------------|
g-----------------------------------------------|
d-0---------0--------0--------5--------5--------|
a-0---------0--------0--------5--------5--------|
d-0---------0--------0--------5--------5--------|
(let ring)

main riff x8
e----------------------------------------------------------------------------|
b----------------------------------------------------------------------------|
g----------------------------------------------------------------------------|
d-0--------0--------0--------1-3-3--0--------0--------0----------------------|
a-0---0-0--0---0-0--0---0-0--1-3-3--0---0-0--0---0-0--0---0-0-5-7-7-7-3-5-5--|
d-0---0-0--0---0-0--0---0-0--1-3-3--0---0-0--0---0-0--0---0-0-5-7-7-7-3-5-5--|
      * *      * *      * *             * *      * *      * *
solo gtr
e----------------------- ------------------------|
b----------------------- -14b--------------------|
g-9b(full bend)-7--9--7- -13b(full bend)-11/13---|
d----------------------- ---------------------12-|
a----------------------- ------------------------|
d----------------------- ------------------------|

bridge
e-----------------|
b-----------------|
g-----------------|
d-5-7-7-7-3-5-5---| <- same as the main riff, but this string is important
a-5-7-7-7-3-5-5---|    difference in the end of it
d-5-7-7-7-3-5-5---|

riff A x4
e---------------------------------------------------------|
b---------------------------------------------------------|
g---------------------------------------------------------|
d-7--7-7-7-7-7--7--7-7-7-7-7--8--8-8-8-8-8--5--5-5-5-5-5--|
a-7--7-7-7-7-7--7--7-7-7-7-7--8--8-8-8-8-8--5--5-5-5-5-5--|
d-7--7-7-7-7-7--7--7-7-7-7-7--8--8-8-8-8-8--5--5-5-5-5-5--|
       * *   *       * *   *       * *   *       * *   *
e---------------------------------------------------------------|
b---------------------------------------------------------------|
g---------------------------------------------------------------|
d-7--7-7-7-7-7--7--7-7-7-7-7--8--8-8-8-8-8--10--10-10-10-10-10--|
a-7--7-7-7-7-7--7--7-7-7-7-7--8--8-8-8-8-8--10--10-10-10-10-10--|
d-7--7-7-7-7-7--7--7-7-7-7-7--8--8-8-8-8-8--10--10-10-10-10-10--|
       * *   *       * *   *       * *   *         *  *     *

before chorus
e------------------------------------------------------------|
b------------------------------------------------------------|
g------------------------------------------------------------|
d-7--7-7-7-7-7--7--7-7-7-7-7--7--7-7-7-7-7--7--7-7-7-7-5-3-2-|
a-7--7-7-7-7-7--7--7-7-7-7-7--7--7-7-7-7-7--7~---------------|
d-7--7-7-7-7-7--7--7-7-7-7-7--7--7-7-7-7-7--7~---------------|
       * *   *       * *   *       * *   *  let ring

chorus riff x4
e------------------------------------------|
b------------------------------------------|
g------------------------------------------|
d-0---0--------3-3-3---8---8--------5-5-5--|
a-0---0--0-0-0/3-3-3---8---8--8-8-8/5-5-5--|
d-0---0--0-0-0/3-3-3---8---8--8-8-8/5-5-5--|
         * *                  * *
  machiiiin' men,         cannibals of rust
e------------------------------------------------|
b------------------------------------------------|
g------------------------------------------------|
d-0---0--------3-3-3---8---8--------10-10-10-/5--|
a-0---0--0-0-0/3-3-3---8---8--8-8-8/10-10-10-/5--|
d-0---0--0-0-0/3-3-3---8---8--8-8-8/10-10-10-/5--|
         * *                  * *
  machiin' men,              .....bite the dust

main riff again x8

1st solo rhythm, (2nd solos rhythm is the as the riff A)
e-----------------------------------------------------------------|
b-----------------------------------------------------------------|
g-----------------------------------------------------------------|
d--------------------------------7--7-7-7--7-7-7------------------|
a-5--5-5-5--5-5-5--5-5-5--5-5-5--5--5-5-5--5-5-5--7-7-7--7-7-8--8-|
d-5--5-5-5--5-5-5--5-5-5--5-5-5-------------------7-7-7--7-7-8--8-|
     * *    * *    * *    * *       * *    * *    * *    * *    *

bridge to intermission
e-------|
b-------|
g-------|
d-------|
a-8-10--|
d-8-10--|

2nd solo beginning...        and end.
e--------------------------- --------------------------------------|
b---------------10--10--10-- ------8-------------------------------|
g-9--9--12--12-------------- -7--------5---3-----2~----------------|
d--------------------------- --------------------------------------|
a--------------------------- --------------------------------------|
d--------------------------- --------------------------------------|

chorus again x8

Intermission between two solos
e--------------------------------------------------|
b--------------------------------------------------|
g--------------------------------------------------|
d-0--0*-----0--0*-----0--0*-------------5----------|
a-0--0*-----0--0*-----0--0*-----0-0-0-0-5----------|
d-0--0*-----0--0*-----0--0*-----0-0-0-0-5----------|
                                * * * *
  iron....
e--------------------------------------------------|
b--------------------------------------------------|
g--------------------------------------------------|
d-0--0-----0--0-----0--0---------------------------|
a-0--0-----0--0-----0--0-----0--3-00--5-00--6-0----|
d-0--0-----0--0-----0--0-----0--3-00--5-00--6-0----|
                             *    **    **    *
play "intermission" again in the end, but this time there's
stringscratching with plectra between every demp, jii-hoo!
Добавлено: 07.06.2012
Другие материалы по этой песне:

Страница создана 27.05.2012
http://primanota.ru/bruce-dickinson/machine-men-chords.htm
Привет, Гость.
Предлагаем пройти революционный курс по гитаре.
Подарок от PrimaNota.Ru, забирай!