PrimaNota.ru - самый крупный в мире бесплатный архив песенных текстов, аккордов, табулатур и нот


Brian Setzer Orchestra - Hawaii Five-o - таба, видео

Регистрация Запомнить меня
Войти через:  Facebook Google Twitter Vk Yandex Mail.ru

Brian Setzer Orchestra - Hawaii Five-o - таба, видео

Печатать
Просмотров: 385
Уроки эстрадного вокала в Санкт-Петербурге
Авторы музыки: Morton Stevens

-------------------------------------------------------------------------------
The Brian Setzer Orchestra-Hawaii Five-O
Live in Japan 2001
-------------------------------------------------------------------------------


e|---------------------------------------------------------------------------|
B|---------------------------------------------------------------------------|
G|----------7-------------------------------7----12--10-10--7-----12---------|
D|--------8----10-------------8-----------8---10---------------8-------------|
A|--10-10---------10--10-10-8---10--10-10------------------------------------|
E|---------------------------------------------------------------------------|

e|---------------------------------------------------------------------------|
B|--11------------------------13-10------------------------------------------|
G|-----12-10------------------------12-10-------------------------12---------|
D|-----------13-10------------------------12-10----------10-12-10------------|
A|-----------------10---------------------------13-11-13---------------------|
E|--------------------13-11-8------------------------------------------------|

e|---------------------------------------|
B|---------------------------------------|
G|--10-10-7------------------------------|
D|----------8-10---10-10-----------------|
A|-----------------------11--------------|
E|---------------------------------------|

e|---------------------------------------------------------------------------|
B|---------------------------------------------------------------------------|
G|-------8------------------------8----13-11-8---13--------------------------|
D|-----9---11----------9--------9---11---------9-----------------------------|
A|--11--------11--11-9---11--11----------------------------------------------|
E|---------------------------------------------------------------------------|

e|---------------------------------------------------------------------------|
B|--------------------------------14-12--------------------------------------|
G|--16-14-13----------------------------14-12----------------------------13--|
D|-----------16-14-13-11-13----11--------------14-12-11---11-13-11----11-----|
A|--------------------------11-------------------------14----------14--------|
E|---------------------------------------------------------------------------|

e|---------------------------------------|
B|---------------------------------------|
G|-11-11--8------------------------------|
D|-----------9-11--11-11-----------------|
A|-----------------------12--------------|
E|---------------------------------------|

e|---------------------------------------------------------------------------|
B|---------------------------------------------------------------------------|
G|-----------9---------------------------------9----14-12-12-9-----14--------|
D|--------10---12--------------10-----------10---12------------10------------|
A|--12-12---------12--12-12-10----12--12-12----------------------------------|
E|---------------------------------------------------------------------------|

e|---------------------------------------------------------------------------|
B|----------------------------/15-13-----------------------------------------|
G|--/14-12---------------------------15-13-12-------------------14-----------|
D|---------15-14-12-14----12------------------15-12-14-12----12--------------|
A|---------------------12---------------------------------15-----------------|
E|---------------------------------------------------------------------------|

                                          w/vibrato
e|------------------------8/10-------------------------------|
B|----------------8-8---8-------5----------------------------|
G|--12-12-9-----------9---------0------7---7-\/--------------|
D|---------10-12----------------5------7---7-\/--------------|
A|------------------------------3------5---5-\/--------------|
E|-----------------------------------------------------------|

e|--------------------------------------------------------------------------------|
B|---------------------------------10-8-------------------------------------------|
G|---------------------9-7--7-7-10----------------------------8-12-10-------------|
D|---------9-7--7-7-10-------------------------8-12-10--10-10---------------------|
A|------10-------------------------------10-10------------------------------------|
E|-10-10--------------------------------------------------------------------------|

e|----------8-6---1-----3----5-----------------------------------------------|
B|--------9-------3-----5----7-----------------------------------------------|
G|--10-10---------3-----5----7-----------------------------------------------|
D|----------------3-----5----7-----------------------------------------------|
A|----------------1-----3----5-----------------------------------------------|
E|----------------1-----3----5-----------------------------------------------|
Добавлено: 30.06.2012
Другие материалы по этой песне:
  • Аккорды и текст

Страница создана 12.06.2012
http://primanota.ru/brian-setzer-orchestra/hawaii-five-o-chords.htm
Привет, Гость.
Предлагаем пройти революционный курс по гитаре.
Подарок от PrimaNota.Ru, забирай!