PrimaNota.ru - самый крупный в мире бесплатный архив песенных текстов, аккордов, табулатур и нот


Brian Setzer Orchestra - Jingle Bell Rock - таба, видео

Регистрация Запомнить меня
Войти через:  Facebook Google Twitter Vk Yandex Mail.ru

Brian Setzer Orchestra - Jingle Bell Rock - таба, видео

Печатать
Просмотров: 354
Song: Jingle Bell Rock
Band: The Brian Setzer Orchestra


Alright kiddies! Long time, no tab. Back with a special Christmas tab
just in time for the holidays. This is the 15th track off of the
Brian Setzer Orchestra's "Christmas Rocks" album. Originally performed
by Bobby Helms in 1957. The intro, and the
solo were pretty easy to get. But I gotta tell ya that during the 
vocals, it was extremely difficult to hear what Brian was playing
because of the constant palm muting.(thanks again Brian =). 
I had to resort to watching live performances
as well as study what he played when I saw him live (best show ever!!)
Strums not exact, TRY to listen for the changes. I'm going to
try to line up the chords with the lyrics. Let's go!!

***sounds like he palm mutes everything in the verses with a "galloping" strum***

INTRO: 
e|/10-10-10--9--9--9----14--17--10--12-12(b)-12--10------------|------------|
B|/10-10-10--10-10-10/--15------10--12-12(b)-12--10--12--9-/10~|------------|
G|---------------------------------------------------12--10/11~|------------|
D|-------------------------------------------------------------|------------|
A|-------------------------------------------------------------|-12-10-9-7--|
E|-------------------------------------------------------------|------------|

VERSE: A
"Jingle bell, jingle bell, jingle bell rock"
   D        Dmaj7          D6          Dmaj7
e|--------------------------2----------------|
B|-7----------2-------------------------2----|
G|-7----------2-------------2-----------2----|
D|-7----------4-------------------------4----|
A|-5----------5-------------------------5----|
E|-------------------------------------------|

VERSE: B
"Jingle bells swing and jingle bells ring"
   D         Amin6        Emin9
e|------------5----------------------------17\---|
B|-7----------5------------7---------------15\---|
G|-7----------5------------7---------------16\---|
D|-7----------4------------5---------------17\---|
A|-5-----------------------7---------------------|
E|------------5----------------------------------|

VERSE: C
"Snowing and blowing up bushels of fun.....now the jingle hop has begun.."
   Emin9     A13         Emin9    A13
e|------------7--------------------7--|---------777~|
B|--7---------7-----------7--------7--|-6/7-----777~|
G|--7---------6-----------7--------6--|-6/7-----666~|
D|--5---------5-----------5--------5--|-4/5-----555~|
A|--7---------------------7-----------|-6/7---------|
E|------------------------------------|-------------|

Repeat VERSE A
Repeat VERSE B
Repeat first measure of VERSE C

VERSE: D
"In the frosty air......"
e|---------7------------|
B|-----7---7---7--------|
G|-----7---6---7--------|
D|-----5---5---7--------|
A|-6/7-7-------5-5-4----|
E|----------------------|


"What a bright time, it's the right time to rock the night away"

e|-3-3--------------------------3-------2/5--|-5-44--55-6--|
B|-3-3--------------------------3-------1/4--|-4-33--44-5--|
G|-4-4--------------------------3-------1/4--|-4-33--44-5--|
D|-3-3--------------------------2-------2/5--|-5-44--55-6--|
A|-5-7--------------------------3------------|-------------|
E|-3-3--------------------------3------------|-------------|


"Jingle bell time is a swell time........to go glidin' in a one horse sleigh
e|--------------------------------3/17~~---|
B|--------------------------------1/15~~---|
G|-1------------------------------2/16~~---|
D|-0------------------------------3/17~~---|
A|-2---------------------------------------|
E|-----------------------------------------|

VERSE: E

"..giddy up jingle horse pick up your feet. jingle around the clock
e|--------------------------2----------------|-------------222--555--8-8-8-|
B|-7----------2-------------------------2----|-7---4-3-2---444--777--101010|
G|-7----------2-------------2-----------2----|-7---3-2-1-------------------|
D|-7----------4-------------------------4----|-7---3-2-1-------------------|
A|-5----------5-------------------------5----|-5---4-3-2-------------------|
E|-------------------------------------------|-----------------------------|

"Mix and a-mingle in the jingling feet.    that's the jingle bell rock 
e|-3---------------------------3--------|----------------------------------|
B|-3---------------------------3--------|-6/7------------7--7---5----------|
G|-4---------------------------3--------|-5/6------------6--7---6----------|
D|-5---------------------------2--------|-5/6------------5--7---7----------|
A|-5---------------------------3--------|-6/7------------5--5---5----------|
E|-3---------------------------3--------|-----------------------5----------|

SOLO: (he finger picks most of this. pop those strings!)

e|-10-10-10--9--9---7-7-7-----|-7-9-7--------7-9-7-7~----|
B|-10-10-10--10-10--7-7-7--7~-|-7---7-7--10--7-7-7-8~----|
G|-------------------------7~-|-7---7-7------8-8-8-9~----|
D|----------------------------|--------------------------|
A|----------------------------|--------------------------|
E|----------------------------|--------------------------|

e|-----3-3---5-7-5--0--2--3--3/5~-|--7-5-7-5-7--7-7-6~---|
B|-/5--5-5-5/7-7-7--0--3--5--5/7~-|--7-7-7-7-7--7-7-7~---|
G|--------------------------------|----------------------|
D|--------------------------------|----------------------|
A|--------------------------------|----------------------|
E|--------------------------------|----------------------|
                                        (use a pick for this little part)
e|-10-10-10--9--9--9----7-9-7---------|-------------------------------|
B|-10-10-10--10-10-10---7-7-7---10\7~-|-12-12(b)-----10--10/12~~~-----|
G|------------------------------11\8~-|----------11~------------------|
D|-12-12-12--11-11-11---9-9-9---------|-------------------------------|
A|------------------------------------|-------------------------------|
E|------------------------------------|-------------------------------|

(back to finger picking!)
e|-----10--12-12-10-10-----10--12~|-14\--------14~----10--10--12---|
B|-12--12--12-12-12-12--11-11--11~|-14\--------14~----10--10--10---|
G|--------------------------------|-14\--------14~-----------------|
D|--------------------------------|-------12-----------------------|
A|--------------------------------|--------------------------------|
E|--------------------------------|--------------------------------|

Repeat VERSE A,B,C(first meaure), D and E

Ending section

"That's the jingle bell. That's the jingle bell. That's the jingle bell rock"
e|-----------|
B|-6/7---7---|
G|-5/6---6---|
D|-5/6---5---|X3
A|-6/7-------|
E|-----------|

REPEAT INTRO riff.
              

              (ok. he just zips through this. not 100% sure but
               i know he runs through this scale)
e|-------|--------12p10--9--10p9h10-9--------------------------------------|
B|-4--5~-|----10----------------------12-10--------------------------------|
G|-3--4~-|--11------------------------------12-10-9------------------------|
D|-3--4~-|12----------------------------------------12-11-9----------------|
A|-4--5~-|--------------------------------------------------12h10p9-9h10p9-|
E|-------|-----------------------------------------------------------------|

e|-------|
B|-10~---|
G|--9~---|
D|--9~---|
A|-10~---|
E|-------|


That's it guys! Please let me know of any changes that need to be made.
Hope you enjoyed playing! I want to try to tab out 1 more christmas song
but don't know if I'll have the time for that. After the new year, I'll be
tabbing out some more Stray Cats and Reverend Horton Heat tabs. Till then,
Happy Holidays to everyone out there. Be safe. Have fun!

| /  slide up
| \  slide down
| h  hammer-on
| p  pull-off
| ~  vibrato
| +  harmonic
| x  Mute note
===========================================================================
Добавлено: 28.04.2012
Другие материалы по этой песне:
  • Аккорды и текст

Страница создана 28.04.2012
http://primanota.ru/brian-setzer-orchestra/jingle-bell-rock-chords.htm
Привет, Гость.
Предлагаем пройти революционный курс по гитаре.
Подарок от PrimaNota.Ru, забирай!