PrimaNota.ru - самый крупный в мире бесплатный архив песенных текстов, аккордов, табулатур и нот


Brian Setzer Orchestra - Jingle Bells - таба, видео

Регистрация Запомнить меня
Войти через:  Facebook Google Twitter Vk Yandex Mail.ru

Brian Setzer Orchestra - Jingle Bells - таба, видео

Печатать
Просмотров: 193
Song:   "Jingle Bells"
Artist: Brian Setzer Orchestra
Album:  Boogie Woogie Chrismas

Play this with a swing


intro - begin                       whammy bar
E--1/6---6-6---6---13------5/6-6-6-6(5)/(6)(5)/(6)---13------|
B--1/6---6-6---6---11------5/6-6-6-6(5)/(6)(5)/(6)---11------|
G------------------13----------------------------------13----|
D------------------------------------------------------------|
A------------------------------------------------------------|
E------------------------------------------------------------|

E----------------------------8b( 9)-8b( 9)-8b( 9)-8b( 9)b(8)p6---9~~~~-|
B--11-----9----6----5----6---8b(10)-8b(10)-8b(10)-8b(10)b(8)p6---9~~~~-|
G--10----10----5----6----7-------------------------------------8-9~~~~-|
D---9-----9---------5----6---------------------------------------------|
A--10----------6----7--------------------------------------------------|
E--------10------------------------------------------------------------|
intro - end


part 1 - begin (jingle bells.......)
E--------------------------------------------------------------------------|
B--------------------------------------------------------------------------|
G--------------------------------------------------------------------------|
D--8----8---8----8----8----8---8----8---8----8---8----8----8----8---8----8-|
A---------8---10---11---10---8-----------------8---10---11---10---8--------|
E6--/10--------------------------10---6--/10--------------------------10---|

E-------------------------------------------------------------------------|
B-------------------------------------------------------------------11~~--|
G----8----8---8----8------------------------------------------------10~~--|
D-----------8---10-----8----8---8----8-----12---12----12----12-------9~~--|
A--6--/10---------------------8---10----------9----10----12----10---10~~--|
E--------------------6--/10-------------10--------------------------------|
part 1 - end (play part 1 twice)

fill 1 - part 1 2nd time
E--6-9-8-6-------------6---------------------|
B----------9-8-6-----------------------------|
G----------------8B(10)--8P6---8-7-------7---|
D----------------------------8-----8-7-6---6-|
A--------------------------------------------|
E--------------------------------------------|


part 2 - begin (dashing through the snow.....)
E--------------------------------------------------------|
B--------------------------------------------------------|
G--------------------------------------------------------|
D----8----8---8----8----8----8---8----8----8----8---8----|
A-----------8---10---11---10---8------------------8---10-|
E--6--/10--------------------------10----6--/10----------|

E--------------------------------------|
B--------------------------------------|
G----8----8---8----8---8----8---8----8-|
D-----------8---10------------8---10---|
A--6--/10------------6--/10------------|
E--------------------------------------|

E----------------------------------------------------|
B----------------------------------------------------|
G----------------------------------------------------|
D----3---3---3---3---3---3---3---3---8----8---8----8-|
A----------3---5---6---5---3----------------8---10---|
E--1--/5-----------------------5---6--/10------------|

E------------------------------------------6---6-|
B--------------------------------------------8---|
G--------------------------------------6h7-------|
D----8----8---8----8----8----8---8---------------|
A-----------8---10---11---10---8-----------------|
E--6--/10--------------------------10------------|

E---------------6---6---------8----8-----------9----9-------------9~~--|
B-x-x-6-x-5-6---8-----8------10------10-------10------10--5-6-----8~~--|
G-x-x-6-x-5-6---8-8-----8----10-10------10----10-10-------6-7-----9~~--|
D-x-x-5-x-4-5---------------------------------------------7-8-----8~~--|
A-x-x-6-x-5-6----------------------------------------------------------|
E----------------------------------------------------------------------|

  (jingle bells......)
E--------------------------------------------------------|
B--------------------------------------------------------|
G--------------------------------------------------------|
D----8----8---8----8----8----8---8----8----8----8---8----|
A-----------8---10---11---10---8------------------8---10-|
E--6--/10--------------------------10----6--/10----------|

E--6-6-6--------6--------6-6---6-----6---6-----5---5-----6----9~~----|
B--------8b(10)---8b(10)---8-----8---6-----6---4-----4---6----8~~----|
G--------------------------8-8-----8-7-7-----6-5-5-----5-7----9~~----|
D-------------------------------------------------------------8~~----|
A--------------------------------------------------------------------|
E--------------------------------------------------------------------|

  (jingle bells......)
E--------------------------------------------------------|
B--------------------------------------------------------|
G--------------------------------------------------------|
D----8----8---8----8----8----8---8----8----8----8---8----|
A-----------8---10---11---10---8------------------8---10-|
E--6--/10--------------------------10----6--/10----------|

E--6-6-6--------6--------6-6---6-------6---6---6-6--5----9--6---|
B--------8b(10)---8b(10)---8-----8---8-6-------6-6--4----8--6---|
G--------------------------8-8-----8---7-7-----6-5--5-------5---|
D----------------------------------------------5----------------|
A----------------------------------------------6----------------|
E---------------------------------------------------------------|
part 2 - end


solo - begin
E-----------13-12-11-9/10------------------9--------8---|
B--------11---------------11----------9-11-----8-10-----|
G--10-12---------------------12-1110--------9-----------|
D-------------------------------------------------------|
A-------------------------------------------------------|
E-------------------------------------------------------|

E--6-6--------6-----------------------|
B------9b(11)---9-6-------------------|
G-------------------8-6---6-------6---|
D-----------------------8---8-7-6-----|
A-------------------------------------|
E-------------------------------------|

E---------------------------------6-6-6------6---|
B-----------------------------3/4-------6B(8)--4-|
G-------------3-5b(6)B(5)P3-5--------------------|
D---------3-5------------------------------------|
A--1-4-/6----------------------------------------|
E------------------------------------------------|

E------3-5-3-6-3-----8-9--9~~~-|
B--1/4---4---------------------|
G------------------/8----------|
D------------------------------|
A------------------------------|
E------------------------------|
solo - end

intermezzo - begin
E--7/(8)-8-8---8-7/(8)-8-8--8-7/(8)-8-8---8-------|
B--7/(8)-8-8---8-7/(8)-8-8--8-7/(8)-8-8---8-------|
G--6/(7)-7-7---7-6/(7)-7-7--7-6/(7)-7-7---7-8-7---|
D--7/(8)-8-8---8-7/(8)-8-8--8-7/(8)-8-8---8-----8-|
A-------------------------------------------------|
E-------------------------------------------------|

E--7/(8)-8-8---8-7/(8)-8-8--8-7/(8)-8-8---9-------|
B--7/(8)-8-8---8-7/(8)-8-8--8-7/(8)-8-8---8-------|
G--6/(7)-7-7---7-6/(7)-7-7--7-6/(7)-7-7---9-------|
D--7/(8)-8-8---8-7/(8)-8-8--8-7/(8)-8-8---8-------|
A-------------------------------------------------|
E-------------------------------------------------|

E-----6--5--6---6--5--6--|
B-----6--5--6---6--5--6--|
G-----6--5--6---6--5--6--|
D-----5--4--5---5--4--5--|
A--6-----5--6---6--5--6--|
E------------------------|

E--6---6--------------------------|
B--6---6---8---6---9---7-7---7----|
G--7---7---7---5---9---9-9---9----|
D--8---8---8---7---8---8-8---8----|
A------------------9---9-9---9----|
E---------------------------------|
intermezzo - end

part 3 - begin (playing 1/2 tone up the scale, dashing through the
snow...)
E------------------------------------------------------------|
B------------------------------------------------------------|
G------------------------------------------------------------|
D----9-----9---9----9----9----9---9----9----9-----9---9----9-|
A------------9---11---12---11---9-------------------9---11---|
E--7---/11--------------------------11----7---/11------------|

E---------------------------------------------------|
B---------------------------------------------------|
G---------------------------------------------------|
D----2---2---2---2---2---2---2---2---4----4---4---4-|
A----------2---4-----------2---4------------4---6---|
E--0---4-----------0---4-----------2---/6-----------|

   (laughin',laughin',laughin',laughin')
E--12-12-12-11-11-11-10-10-10-9-9-9-8-8-8-7-7-7-6-6-6-5-5-5-|
B-----------------------------------------------------------|
G-----------------------------------------------------------|
D-----------------------------------------------------------|
A-----------------------------------------------------------|
E-----------------------------------------------------------|

   (let them bob tails ring...)
E--0h2-2-2-2-0h2-2-2-2-2---------------|
B--------------------------------------|
G--------------------------------------|
D---------------------------9---9----9-|
A------------------------11---9--------|
E---------------------------------11---|

   (making its spirits bright)
E-------------------------------------|
B-------------------------------------|
G-------------------------------------|
D----9-----9---9----9---2---2---2---2-|
A------------9---11-----------2---4---|
E--7---/11------------0---4-----------|

  (what fun it is to ride this thing.....)
E--------------------------------------------------------10~~---|
B---------------------------------------------------------9~~---|
G--------------------------------------------------------10~~---|
D----2---2---2---2---4----4---4---4---4---4---4---4-------9~~---|
A----------2---4------------4---6---7---6---4-------------------|
E--0---4-----------2---/6-----------------------6---7-----------|
part 3 - end

part 4 - begin
E-------------------------------------------------12~~~~-15-14-12-|
B-----------------------------------------------------------------|
G-----------------------------------------------------------------|
D----9-----9---9----9----9----9---9----9----9---------------------|
A------------9---11---12---11---9---------------------------------|
E--7---/11--------------------------11----7---/11-----------------|

E-----------------------------------7----6---7----10~~---|
B--15-14-12----------------10(9)---7----5---7-----9~~----|
G-----------15-14-12-------10(9)---8----6---8----10~~----|
D--------------------16-14-------------------------9~~---|
A--------------------------------------------------------|
E--------------------------------------------------------|

E------------------------------------------------------------|
B------------------------------------------------------------|
G------------------------------------------------------------|
D----9-----9---9----9----9----9---9----9----9-----9---9----9-|
A------------9---11---12---11---9-------------------9---11---|
E--7---/11--------------------------11----7---/11------------|

E--7-7-7---------7--7------7---7----|
B--------10b(12)---10b(12)-9---7----|
G--------------------------9---8----|
D-----------------------------------|
A-----------------------------------|
E-----------------------------------|

E---------------------------------------------|
B--7---7-7---7---7-----7---7-7---7---7--------|
G--6---6-6---6---6-----7---7-7---7---7--------|
D--8---8-8---8---8-----8---8-8---8---8--------|
A---------------------------------------------|
E---------------------------------------------|

E-10---9-10---9-10-10-10------------------------------------10---|
B-10---9-10---9-10-10-10-------------------------------------9---|
G-10---9-10---9-10-10-10------7-9-10-9p8p7-9-7--------------10---|
D-------------------------7-9------------------9-7-----------9---|
A--------------------------------------------------9-------------|
E----------------------------------------------------------------|
part 4 - end
Добавлено: 10.05.2012
Другие материалы по этой песне:
  • Аккорды и текст

Страница создана 10.05.2012
http://primanota.ru/brian-setzer-orchestra/jingle-bells-chords.htm
Привет, Гость.
Предлагаем пройти революционный курс по гитаре.
Подарок от PrimaNota.Ru, забирай!