PrimaNota.ru - самый крупный в мире бесплатный архив песенных текстов, аккордов, табулатур и нот


Brian May - Since You've Been Gone - аккорды и текст, видео

Регистрация Запомнить меня
Войти через:  Facebook Google Twitter Vk Yandex Mail.ru

Brian May - Since You've Been Gone - аккорды и текст, видео

Печатать
Просмотров: 207
Since You've Been Gone
Brian May
-------------------------------------------------------------------------------
                           Since You've Been Gone-Brian May
-------------------------------------------------------------------------------
Tabbed by:Nick V.
E-mail:BlindTerry333@gmail.com

Brian's live cover of Rainbow's "Since You've Been Gone"

Tuning:EADGBE


  G  D/F#  E   C  C(III) D(V) D  A   F#m7 E(VII) Eb   Em
e|-3---0---0---x--x------x----2--x----2---x------3----0-----------------------|
B|-3---3---0---1--x------x----3--2----2---x------4----0-----------------------|
G|-0---2---1---0--5------7----2--2----2---9------3----0-----------------------|
D|-0---0---2---2--5------7----0--2----2---9------5----2-----------------------|
A|-2---0---2---3--3------5----0--0----4---7------x----2-----------------------|
E|-3---2---0---x--x------x----x--x----2---x------x----0-----------------------|
Intro:


G D/F# E  C

G 

D/F# E C C(III) D(V) 


G D/F# E C 

G 

D/F# E C C(III) D(V)

Verse:

G         D/F#              Em
I get the same old dreams same time every night
C          G             Am      D
Fall to the ground and I wake up
G         D/F#            Em
So I get out of bed, put on my shoes and in my head
C         G               Am     D
Thoughts fly back to the breakup 


Eb                             (Riff #1)
These four wall are closing in

(Riff #1)
e|---------------------------------------------------------------------------|
B|---------------------------------------------------------------------------|
G|---------3-----------------------------------------------------------------|
D|-0--3/5-----3--5-----------------------------------------------------------|
A|---------------------------------------------------------------------------|
E|---------------------------------------------------------------------------|

Eb                            (Riff #2)
Look at the fix you put me in

(Riff #2)
    C  Bb  A       B  C  D        
e|--------------------------------------------------------------------------|
B|--------------------------------------------------------------------------|
G|--------------------------------------------------------------------------|
D|-----------------4--5--7--------------------------------------------------|
A|--10--8--7-------2--3--5--------------------------------------------------|
E|--8---6--5----------------------------------------------------------------| 

Chorus:

G              D/F#    E             C
Since you been gone, since you been gone
G                D/F#      E   C  C(III) D(V)
I'm out of my head can't take it
G              D/F#    E              C
Could I be wrong but since you been gone
G              D/F#     E      C  C(III) D(V)
You cast your spell so break it
G       D/F#     E    C
Oh, oh, oh, oh, oh, oh

G  D/F#  E  C

C(III)          D(V)
Since you been gone 


G          D/F#           Em          C
So in the night I stand beneath the backstreet light
G             Am          D
I read the words that you sent to me
G          D/F#               Em                  C
I can take the afternoon, the night time comes around too soon
G             Am          D
You can't know what you mean to me 


Eb                                (Riff #1)
Your poison letter, your telegram
Eb                   (Riff #2)
Just goes to show you don't give a damn 


G              D/F#    E             C
Since you been gone, since you been gone
G                D/F#      E   C  C(III) D(V)
I'm out of my head can't take it
G              D/F#    E              C
Could I be wrong but since you been gone
G              D/F#     E      C  C(III) D(V)
You cast your spell so break it
G       D/F#     E    C
Oh, oh, oh, oh, oh, oh

G D/F# E C

C(III)          D(V)  G
Since you been gone 


Bridge:

G  Am  G/B  C  G  B7  Em  C  Am

   G
e|-----------------------------------------2b--------------------------------|
B|----1--3--5--3/5--3--------------------------------------------------------|
G|----------------------5--4---5--4--2--0------------------------------------|
D|---------------------------------------------------------------------------|
A|---------------------------------------------------------------------------|
E|---------------------------------------------------------------------------|

G    Am       G/B  C
Everywhere you go
           G        B7             Em  Am  C
Baby, you know you'll never do wrong 


D (x2)

A                  E     F#m7             D
Since you been gone, since you been gone
A              E     F#m7     D  D(V) E(VII)
I'm out of my head can't take it

A              E     F#m7              D
Could I be wrong but since you been gone
A             E      F#m7      D  D(V) E(VII)
You cast your spell so break it
A      E     F#m7      D
Oh, oh, oh, oh, oh, oh

A E F#m7 D(V) E(VII)

Repeat

E                    A
Ever since you been gone 


Questions, comments, insults...BlindTerry333
Добавлено: 25.11.2015
Другие материалы по этой песне:
  • Аккорды и текст

Страница создана 06.05.2012
http://primanota.ru/brian-may/since-youve-been-gone-chords.htm
Привет, Гость.
Предлагаем пройти революционный курс по гитаре.
Подарок от PrimaNota.Ru, забирай!