PrimaNota.ru - самый крупный в мире бесплатный архив песенных текстов, аккордов, табулатур и нот


Brian May - Last Horizon - текст песни, таба, видео

Регистрация Запомнить меня
Войти через:  Facebook Google Twitter Vk Yandex Mail.ru

Brian May - Last Horizon - текст песни, таба, видео

Печатать
Просмотров: 308
Авторы музыки: Brian May

Last Horizon  Brian May (Back to Light)


|--------------------------------------------------------------------------------|
|----14--12----------------------------------------------------------------------|
|-9-----------9--15--13------11--11--9--9------11--9--9---13--11--11--9--11------|
|-------------------------------------------13-----------------------------------|
|--------------------------------------------------------------------------------|
|--------------------------------------------------------------------------------|

|--------------------------------------------------------------------------------|
|----14--12----------------------------------------------------------------------|
|-9----------9--15--13-----9/11--11--9--9-----11--9--9---13--11--11--9-11--------|
|------------------------------------------13------------------------------------|
|--------------------------------------------------------------------------------|
|--------------------------------------------------------------------------------|

|------------------------------------------------------------------21--19--------|
|-----------14--12/14----14-14-16-17--14-14-14--14-16-17--21-19------------------|
|-11--9--9------------14----------------------------------------16---------------|
|--------------------------------------------------------------------------------|
|--------------------------------------------------------------------------------|
|--------------------------------------------------------------------------------|
                                                                      ^^ ^^ ^^ ^^
|-----17-16-12/14-14-12-12-11-16-14-12---11-12-14-16-14-14-12-14-14---19-19-19-19|
|-13----------------------------------------------------------------13-----------|
|--------------------------------------------------------------------------------|
|--------------------------------------------------------------------------------|
|--------------------------------------------------------------------------------|
|--------------------------------------------------------------------------------|

|-16-17-19-16-17-19-16-17-19---17-16-14-12-14-12-----12-14----11-11-12-----------|
|------------------------------------------------14--------12----------10---15-15|
|--------------------------------------------------------------------------------|
|--------------------------------------------------------------------------------|
|--------------------------------------------------------------------------------|
|--------------------------------------------------------------------------------|

|-------------19--------------------11----------11-12-11-12-14-16-----14---------|
|-17-17-19-17----17-----------------------12-14----------------------------------|
|---------------------1--1-1-1-1-1-----11----------------------------------------|
|---------------------2--2-2-2-2-2-----------------------------------------------|
|---------------------2--2-2-2-2-2-----------------------------------------------|
|--------------------------------------------------------------------------------|

|-12--11------11--12--16-14--14-12----14--14-16-17------21--19--16---------------|
|---------14-----------------------14--------------------------------------------|
|----------------------------------------------------16--------------------------|
|--------------------------------------------------------------------------------|
|--------------------------------------------------------------------------------|
|--------------------------------------------------------------------------------|

|-171916171916171916171916171916171916171916171921--191716191716-----------------|
|-----------------------------------------------------------------191715---------|
|--------------------------------------------------------------------------------|
|--------------------------------------------------------------------------------|
|--------------------------------------------------------------------------------|
|--------------------------------------------------------------------------------|

|------------------------------------------------------15-13---------------------|
|-1517191715---------------151719-17-17-----15--21-19--------17-15-13------------|
|------------1715--1517-----------------------------------------------16-14-12---|
|--------------------------------------------------------------------------------|
|--------------------------------------------------------------------------------|
|--------------------------------------------------------------------------------|

|--------------------------------------------------------------------------------|
|--------------------------15-17---15-13-----------------------------------------|
|---------11-16-14-12---16----------------16-14-16-14-12----12-14----------------|
|-12--13-------------------------------------------------14-------12-------------|
|--------------------------------------------------------------------------------|
|--------------------------------------------------------------------------------|






|--------------------------------------------------------------------------------|
|--------------------------------------------------------------------------------|
|-------9-12---------------------------------------------------------------------|
|-10/11--------------------------------------------------------------------------|
|--------------------------------------------------------------------------------|
|--------------------------------------------------------------------------------|

|----------15-13-12----------------------15-17-17/19-------12-------12----12-----|
|-------------------15-13-12-------------------------13-15----13-15----13---15-13|
|-12-12~~~-------------------14-12-16-12-----------------------------------------|
|--------------------------------------------------------------------------------|
|--------------------------------------------------------------------------------|
|--------------------------------------------------------------------------------|

|-12----12---15-15-15----24-22-------24-22---------------------------------------|
|----15---------------15----------15---------------------------------------------|
|--------------------------------------------------------------------------------|
|--------------------------------------------------------------------------------|
|--------------------------------------------------------------------------------|
|--------------------------------------------------------------------------------|






Добавлено: 28.04.2012
Другие материалы по этой песне:

Страница создана 14.03.2012
http://primanota.ru/brian-may/last-horizon-chords.htm
Привет, Гость.
Предлагаем пройти революционный курс по гитаре.
Подарок от PrimaNota.Ru, забирай!