PrimaNota.ru - самый крупный в мире бесплатный архив песенных текстов, аккордов, табулатур и нот


Brian May - Last Horizon Live - таба, видео

Регистрация Запомнить меня
Войти через:  Facebook Google Twitter Vk Yandex Mail.ru

Brian May - Last Horizon Live - таба, видео

Печатать
Просмотров: 453
-------------------------------------------------------------------------------
                  LAST HORIZON by Brian May (FIRST SECTION ONLY)
-------------------------------------------------------------------------------
Tabbed by: Matthew Wheatley
Email: matty4unet@gmail.com

Tuning: Standard


This is my first tab. Be Gentle, i think its perfect and how i play it..  
(P.S. its only the first bit upto just before power chords)


e|--------------------------------------------------------------------------------|
B|----12b(14)r12-12~----9b(10)r9-9~-----------------------------------------------|
G|-9-----------------------------------9/11-11-9-9~--8-11-9-9~--9-11b(13)r11-11---|
D|--------------------9-----------------------------------------------------------|
A|--------------------------------------------------------------------------------|
E|--------------------------------------------------------------------------------|

e|--------------------------------------------------------------------------------|
B|---------------12b(14)r12-12~----9b(10)r9-9~------------------------------------|
G|-9-11-11~-------------------------------------9/11-11-9-9~--8--pb(13)r11-9----9-|
D|------------9------------------9---------------------------------------------9--|
A|--------------------------------------------------------------------------------|
E|--------------------------------------------------------------------------------|

e|--------------------------------------------------------------------------------|
B|-----------------------------12b(14)-14r-10-12b(14)------14--16-17~----14-14-14~|
G|-11b(13)r11-11-11-9-11-11~-9----------------------------------------------------|
D|--------------------------------------------------------------------------------|
A|--------------------------------------------------------------------------------|
E|--------------------------------------------------------------------------------|

e|------------------------------19b(21)r19-19~~------16b(17)r16-16~~--------------|
B|-14--16-17~---19b(21)r19~-------------------------------------------17/19--19---|
G|---------------------------16---------------- 16--------------------------------|
D|--------------------------------------------------------------------------------|
A|--------------------------------------------------------------------------------|
E|--------------------------------------------------------------------------------|

e|-----------------------------------------------------------------19b(21)r19-19--|
B|-17-17~~----16-19-17-17~---17h19-19b(21)r19-19-17h19-19-------------------------|
G|-------------------------------------------------------------16-----------------|
D|--------------------------------------------------------------------------------|
A|--------------------------------------------------------------------------------|
E|--------------------------------------------------------------------------------|

e|-17p16-17-19--------------------------------------------------------------------|
B|-------------17-19-19b(21)r19-19-17\16h17-19b(21)r(20)b(21)r19-17\16------------|
G|---------------------------------------------------------------------18-17-16~--|
D|--------------------------------------------------------------------------------|
A|--------------------------------------------------------------------------------|
E|--------------------------------------------------------------------------------|

e|--------------------------------------------------------------------------------|
B|--19b(21)r19-19-17-19-17\16h17----16-19-17-19-17~--17-19-19b(21)r19-19-17-17----|
G|-----------------------------------------------------------------------------18-|
D|------------------------------------------------------------------------------- |
A|--------------------------------------------------------------------------------|
E|--------------------------------------------------------------------------------|


e|--------------------------------------------------------------------------------|
B|-17b(19)r17--17h19p17~~~~~~~~~--------------------------------------------------|
G|--------------------------------------------------------------------------------|
D|------------------------------------------------------------------------------- |
A|--------------------------------------------------------------------------------|
E|--------------------------------------------------------------------------------|

| b  bend to (**)
| r  bend back to
| pb pre-bend to...before pick
| /  slide up
| \  slide down
| h  hammer-on
| p  pull-off
| ~  vibrato
| x  Mute note
===============================================================================
Добавлено: 08.12.2013
Другие материалы по этой песне:

Страница создана 26.06.2012
http://primanota.ru/brian-may/last-horizon-live-chords.htm
Привет, Гость.
Предлагаем пройти революционный курс по гитаре.
Подарок от PrimaNota.Ru, забирай!