PrimaNota.ru - самый крупный в мире бесплатный архив песенных текстов, аккордов, табулатур и нот


Brett Dennen - The One Who Loves You The Most - текст песни, таба, видео

Регистрация Запомнить меня
Войти через:  Facebook Google Twitter Vk Yandex Mail.ru

Brett Dennen - The One Who Loves You The Most - текст песни, таба, видео

Печатать
Просмотров: 250
Уроки эстрадного вокала в Санкт-Петербурге
Brett Dennen
“The One Who Loves You The Most”
So Much More
http://www.brettdennen.com/

Tabbed by: Adam D

New tune I heard yesterday, pretty catchy. Feel free to comment about any mistakes 
the lyrics.

Tune ½ step down.

Intro/Verse

“When the sky is falling from above you…”

	C		G/D*    Am       G
e|-------0—0----0--------3------0—0—0--------------------------|
b|-------1—1----1--------3------1—1—1----0---------------------|
g|------------------------------2-2-2----0----         Repeat--| 3x
d|-------------------------------------------------------------|
a|-----3---------------3/5----0------0-------------------------|
e|---------------------------------------3---------------------|

Chorus

       “I will be the one who loves you the most.”

	F	          G           C
e|-------1---------------3-----------0---0---0-----------|
b|-------1---------------3-----------1---1---1-----------|
g|-------2---------------4-----------2---2---2-----------|   Sometimes repeat,
d|-------3---------------5-------------------------------|    Sometimes go back
a|-------3---------------5-------3------------3----------|    to verse lick
e|-------1---------------3-------------------------------|


Chords

C               G/D           Am              G
When the sky is falling from above you
And the wind is raging from the coast
And you want someone who truly loves you
F             G                      C
I will be the one who loves you the most


When the masquerade and burlesqued balls
Become too ordinary to boost
You complain about the parade and curtain calls
I will be the one who loves you the most
Yeah, I will be the one who loves you the most

When the women with their stolen graces
Don't invite you to play host
To their daughters with fake faces
I will be the one who loves you the most


When all the debutantes desert you
And all the doorways are all closed
And the harlequins have hurt you
I will be the one who loves you the most
I will be the one who loves you the most

When your suitors sneering swank beside you
And leave you hallow like a ghost
And you just want somebody to confide to
I will be the one who loves you the most
I will be the one who loves you the most

See, when you forgive your imperfections
And you've auctioned all your clothes
And look to see your true reflection
You will be the one who loves you the most
You will be the one who loves you the most
You will be the one who loves you the most


Enjoy!
Adam
Добавлено: 30.05.2012
Другие материалы по этой песне:
  • Аккорды и текст

Страница создана 20.03.2012
http://primanota.ru/brett-dennen/the-one-who-loves-you-the-most-chords.htm
Привет, Гость.
Предлагаем пройти революционный курс по гитаре.
Подарок от PrimaNota.Ru, забирай!