PrimaNota.ru - самый крупный в мире бесплатный архив песенных текстов, аккордов, табулатур и нот


Breaking Benjamin - Simple Design - текст песни, таба, бас-таба, видео

Регистрация Запомнить меня
Войти через:  Facebook Google Twitter Vk Yandex Mail.ru

Breaking Benjamin - Simple Design - текст песни, таба, бас-таба, видео

Печатать
Просмотров: 491
Уроки эстрадного вокала в Санкт-Петербурге
----------------------------------------------------------------------------
			     Simple Design - Breaking Benjamin
----------------------------------------------------------------------------
Tabbed by: Mike Mirabella

Tuning: Low To High C G C F A D

| /  slide up
| \  slide down
| h  hammer-on
| p  pull-off
| ~  vibrato
| +  harmonic
| x  Mute note
============================================================================

	Intro:
D|--------------------------------------------------------------|
A|--------------------------------------------------------------|
F|--5--4--------------------------------------------------------|
C|--5--4--7--5--0--3--------------------------------------------|
G|--3--2--7--5--0—-3-----------------3-h5-----------3-h5--3-----|
C|--------7--5--0--3-----0--0-----0--------0--0--0-----------3--|

D|--------------------------------------------------------------|
A|--------------------------------------------------------------|
F|--5--4--------------------------------------------------------|
C|--5--4--7--5--0--3--------------------------------------------|
G|--3--2--7--5--0--3-----------------3-h5-----------3-h5--3-----|
C|--------7--5--0--3-----0--0--0--0--------0--0--0-----------3--|

D|--------------------------------------------------------------|
A|--------------------------------------------------------------|
F|--7--5--9--7--5--7--------------------------------------------|
C|--------------------------------------------------------------|
G|--5--3--7--5--3--5-----------------3-h5-----------3-h5--3-----|
C|-----------------------0--0-----0--------0--0--0-----------3--|

D|-----------|
A|-----------|
F|-----7-----|
C|--0--7--3--|
G|--0--5--3--|
C|--0-----3--|

D|--------------------------------------|
A|--------------------------------------|
F|-.----------------------5--5--5—-5--.-|
C|-.-0--0--3--0-----0--0--5--5--5—-5--.-|
G|---0--0--3--0-----0--0--3--3--3—-3----|
C|---0--0--3--0-----0--0----------------|

 
	Verse:
D|-----------------|
A|-----------------|
F|-.-7------/10--.-|
C|-.-7------/10--.-|
G|---5------/8-----|
C|----------/8-----|

D|--------------------------------------|
A|--------------------------------------|
F|-.----------------------5--5--5—-5--.-|
C|-.-0--0--3--0-----0--0--5--5--5—-5--.-|
G|---0--0--3--0-----0--0--3--3--3—-3----|
C|---0--0--3--0-----0--0----------------|
 
  2X
D|-----------------------|
A|-----------------------|
F|--4--------------------|
C|--4—-0--x--5—-0---—-0--|
G|--2--0--x—-5-—0—--—-0--|
C|-----0--x--5—-0-—-—-0--|

	Chorus:  3X
D|--------------------------|
A|--------------------------|
F|-.-7-----9-----7-----7--.-|
C|-.-7-----7-----7-----5--.-|
G|---5-----7-----5-----5----|
C|---------7-----4-----5----|

	Chorus Last Time
D|--------------------------|
A|--------------------------|
F|--7-----------4--------7--|
C|--7-----7-----4--4--5--7--|
G|--5-----7-----2--4--5--5--|
C|--------7--------4--5-----|

D|--------------------------------------|
A|--------------------------------------|
F|-.----------------------5--5--5—-5--.-|
C|-.-0--0--3--0-----0--0--5--5--5—-5--.-|
G|---0--0--3--0-----0--0--3--3--3—-3----|
C|---0--0--3--0-----0--0----------------|

	Verse:
D|-----------------|
A|-----------------|
F|-.-7------/10--.-|
C|-.-7------/10--.-|
G|---5------/8-----|
C|----------/8-----|
 

D|--------------------------------------|
A|--------------------------------------|
F|-.----------------------5--5--5—-5--.-|
C|-.-0--0--3--0-----0--0--5--5--5—-5--.-|
G|---0--0--3--0-----0--0--3--3--3—-3----|
C|---0--0--3--0-----0--0----------------|

  2X
D|-----------------------|
A|-----------------------|
F|--4--------------------|
C|--4—-0--x--5—-0---—-0--|
G|--2--0--x—-5-—0—--—-0--|
C|-----0--x--5—-0-—-—-0--|

	Chorus:  3X
D|--------------------------|
A|--------------------------|
F|-.-7-----9-----7-----7--.-|
C|-.-7-----7-----7-----5--.-|
G|---5-----7-----5-----5----|
C|---------7-----4-----5----|

	Chorus Last Time
D|--------------------------|
A|--------------------------|
F|--7-----------4--------7--|
C|--7-----7-----4--4--5--7--|
G|--5-----7-----2--4--5--5--|
C|--------7--------4--5-----|

D|-------------------------------------------------------------------|
A|-------------------------------------------------------------------|
F|--7-----------11--11/12\11---14--14/16\14---14\12----12\11---11\9--|
C|-------------------------------------------------------------------|
G|--5-----------9----9/10\9----12--12/16\12---12\10----10\9-----9\7--|
C|-------------------------------------------------------------------|

D|-------------------------------|
A|-------------------------------|
F|--9\8---8\9----11/12\11/12\11--|
C|-------------------------------|
G|--7\6---6\7-----9/10\-9/10\-9--|
C|-------------------------------|
  2X
D|------------0-h2-----------------0-h2-----------------2-h3-----|
A|--------3---------3-----------3--------3-----------3--------3--|
F|-.----2---------------------2--------------------2-------------|
C|-.-0---------------------5--------------------4----------------|
G|---------------------------------------------------------------|
C|---------------------------------------------------------------|
 

D|----------5------------|
A|-------3-----3/-5-\3---|
F|---------------------.-|
C|-0-------------------.-|
G|-----------------------|
C|-----------------------|

  2X
D|--------------------------------------------|
A|--------------------------------------------|
F|--------------------------------------------|
C|--0--0--0-----------0--0--0-----------------|
G|--0--0--0-----------0--0--0-----3-----------|
C|--0--0--0-----------0--0--0--------3--0--3--|

      /1                       /1...........  /1\          
D|------------------------------------------------------------------|
A|--14------------17--15--17--17------------17----15----------------|
F|----------------------------------------------------14--------14--|
C|------------------------------------------------------------------|
G|------------------------------------------------------------------|
C|------------------------------------------------------------------|

	Chorus:  5X
D|--------------------------|
A|--------------------------|
F|-.-7-----9-----7-----7--.-|
C|-.-7-----7-----7-----5--.-|
G|---5-----7-----5-----5----|
C|---------7-----4-----5----|

	Chorus Last Time
D|--------------------------|
A|--------------------------|
F|--7-----------4--------7--|
C|--7-----7-----4--4--5--7--|
G|--5-----7-----2--4--5--5--|
C|--------7--------4--5-----|

D|--------------------------------------|
A|--------------------------------------|
F|------------------------5--5--5—-5----|
C|---0--0--3--0-----0--0--5--5--5—-5----|
G|---0--0--3--0-----0--0--3--3--3—-3----|
C|---0--0--3--0-----0--0----------------|

D|-------------------------------|
A|-------------------------------|
F|------------------5--5--5------|
C|---0--0--3--0-----5--5--5—-0---|
G|---0--0--3--0-----3--3--3—-0---|
C|---0--0--3--0--------------0---|
 

D|-------------------------------------------------|
A|-------------------------------------------------|
F|-------------------------------------------------|
C|-------------------------------------------------|
G|-----3--------3-----------------------------3—5--|
C|--0-----5--3-----0--0--5--0--0—-5--3--0--0-------|

D|-------------------------------------------------|
A|-------------------------------------------------|
F|-------------------------------------------------|
C|--------------3-------------------------0-h3-----|
G|-----3-----------5--3--5-------3-h5-----------3--|
C|--0-----5--3-------------------------3-----------|

D|-------------------------------------------------|
A|-------------------------------------------------|
F|-------------------------------------------------|
C|-------------------------------------------------|
G|-----3--------3-----------------------------3—5--|
C|--0-----5--3-----0--0--5--0--0—-5--3--0--0-------|

D|-----------------------|
A|-----------------------|
F|-----7-----------------|
C|--0--7--3-----0--0--0--|
G|--0--5--3-----0--0—-0--|
C|--0-----3-----0--0--0--|
Добавлено: 30.03.2012
Другие материалы по этой песне:

Страница создана 20.03.2012
http://primanota.ru/breaking-benjamin/simple-design-chords.htm
Привет, Гость.
Предлагаем пройти революционный курс по гитаре.
Подарок от PrimaNota.Ru, забирай!