PrimaNota.ru - самый крупный в мире бесплатный архив песенных текстов, аккордов, табулатур и нот


Breaking Benjamin - Topless - текст песни, таба, бас-таба, видео

Регистрация Запомнить меня
Войти через:  Facebook Google Twitter Vk Yandex Mail.ru

Breaking Benjamin - Topless - текст песни, таба, бас-таба, видео

Печатать
Просмотров: 754
-------------------------------------------------------------------------------
			     Topless – Breaking Benjamin
-------------------------------------------------------------------------------
Tabbed by: Brandon Teves 
Email: teves14@hotmail.com

Tuning: Drop C CGCFAD
	
Note: for those of you that have gone to any breaking Benjamin concerts than you know
this song, but for those of you who don't it's a song that they only play during their
concerts and its pretty cool. Now if you wanna hear it then just download it under the
name topless. I just have the intro cuz that part is easy but the verse and all is a
little tougher. Anyways I didn't see a tab for it so I thought id put it out there.
Have fun with it and if you have any correction just e-mail me at teves14@hotmail.com
im pretty sure that its 100% correct though...
D|--------------------------------------|
A|--------------------------------------|
F|--------------------------------------|
C|--0--2--0--2--0--2--0--2--0-2-3-3-3---|
G|--0--2--0--2--0--2--0--2--0-2-3-3-3---|
C|--0--2--0--2--0--2--0--2--0-2-3-3-3---|

D|---------------------------------|
A|---------------------------------|
F|---------------------------------|
C|--0--2--0--2--0--2--0--2--0-2-3--|
G|--0--2--0--2--0--2--0--2--0-2-3--|
C|--0--2--0--2--0--2--0--2--0-2-3--|


| /  slide up
| \  slide down
| h  hammer-on
| p  pull-off
| ~  vibrato
| +  harmonic
| x  Mute note
===============================================================================
Добавлено: 13.05.2012
Другие материалы по этой песне:

Страница создана 04.03.2012
http://primanota.ru/breaking-benjamin/topless-chords.htm
Привет, Гость.
Предлагаем пройти революционный курс по гитаре.
Подарок от PrimaNota.Ru, забирай!