PrimaNota.ru - самый крупный в мире бесплатный архив песенных текстов, аккордов, табулатур и нот


Brand New - Untitled 06 - таба, видео

Регистрация Запомнить меня
Войти через:  Facebook Google Twitter Vk Yandex Mail.ru

Brand New - Untitled 06 - таба, видео

Печатать
Просмотров: 127
Band: Brand New
Song: Untitled #6 (Where You've Been)
Album: Leaked Demos 2006 (probably not on new album)
Tabbed By: Knife2aGunFight
Tuning: Standard
Guitar #1

Riff #1
e----------------------------------------------------------------------------|
b--------------1------------------1-----------------1-----------------1------|
g--------2--------2---------2--------2--------2--------2--------2--------2---|
d-----2-----2------------2-----2-----------2-----2-----------2-----2---------|
a--0------------------2-----------------3-----------------2------------------|
E----------------------------------------------------------------------------|

Riff #2
e----------------------------------------------------|
b----1---------------------1-----------------0-------|
g--------0------------0-------0--------0--------0----|
d------------------2-----2-----------2-----2---------|
a--------------3-----------------3-------------------|
E----------------------------------------------------|

e----------------------------------------------------------------------------|
b--------------0----------------0-------------------0----------------0-------|
g--------0--------0---------0------0----------0--------0---------0------0----|
d-----2-----2------------2-----2-----------2-----2------------2-----2--------|
a--2------------------2-----------------2------------------2-----------------|
E----------------------------------------------------------------------------|

Riff 1 (x12)
Riff 2
Riff 1 (x10)
Riff 2
Riff 1 (x1)
Riff 2
Riff 1(x4
Then Guitar 2 Comes in with a rather unimportant part

e---------------------|
b--------0-----1--0---|
g---------------------|
d---------------------|
a---------------------|
E---------------------|
And guitar 1 plays Riff 1 while Guitar 2 plays above part, with background effects until 
song the ends
Добавлено: 23.07.2012
Другие материалы по этой песне:
  • Аккорды и текст

Страница создана 23.07.2012
http://primanota.ru/brand-new/untitled-06-chords.htm
Привет, Гость.
Предлагаем пройти революционный курс по гитаре.
Подарок от PrimaNota.Ru, забирай!