PrimaNota.ru - самый крупный в мире бесплатный архив песенных текстов, аккордов, табулатур и нот


Brand New - Untitled 08 - таба, видео

Регистрация Запомнить меня
Войти через:  Facebook Google Twitter Vk Yandex Mail.ru

Brand New - Untitled 08 - таба, видео

Печатать
Просмотров: 127
Band: Brand New
Song: Untitled 8 (Drinking And Driving)
Album: Leaked Demos 2006
Tabbed By: Kniife2aGunFight
Tuning: Standard

This song is of extremely poor quality, so forgive me if this is absolutely perfect, 
the recording is perfect either.

There are two guitars,
In the first part only guitar 1 is playing, and guitar 1 plays this one riff for most of 
song until the bridge
Guitar 1 riff

e----------------------------------------------------|
b----------------------------------------------------|
g----------------------------------------------------|
d--4-4-4-4-4-4--4-4-4-4-4-4--------------------------|
a--6-6-6-6-6-6--4-4-4-4-4-4--6-6-6-6-6-6--4-4-4-4-4-4|
E----------------------------4-4-4-4-4-4--2-2-2-2-2-2|
(play once no singing)
Losing all my friends.....Losing them to Drinking and Driving
Losing all my friends..............and I wantem back
Slipping out the back........ Did you really think we wouldn't notice?
Slipping out the back...............In the pouring rain
Yeah
Yeah
But he loved his wife..... You were always faithful to her always
Buried both the kids..............In the summer sun
Praying for his life........Huddled in the brig all with the shipmates
Praying for his life.............And I dropped a bomb
-------------------------------------------------------------------------
Then Guitar 2 comes in and basically plays the same thing as Guitar 1 but plays most if 
all of the entire chord, and strums a lot louder, but if you want to do it with one 
just play the chords as so.
---------------------------------------------|
e--------------------------------------------|
b--------------------------------------------|Let the chords in the
g--(3)--3-(3)--3--3-3-3-3-3-3-(3)--(3)--(3)--| parentheses ring out
d--(4)--4-(4)--4--4-4-4-4-4-4-(4)--(4)--(4)--|
a--(6)--6-(4)--4--6-6-6-6-6-6-(4)--(4)--(4)--|
E-----------------4-4-4-4-4-4-(2)--(2)--(2)--|
Yeah
(play once riff no singing)
Yeah
Yeah, Yeah.
---------------------------------------------------------------------------
Then return to guitar 1's quiet strumming riff
---------------------------------------------------------------------------

e----------------------------------------------------|
b----------------------------------------------------|
g----------------------------------------------------|
d--4-4-4-4-4-4--4-4-4-4-4-4--------------------------|
a--6-6-6-6-6-6--4-4-4-4-4-4--6-6-6-6-6-6--4-4-4-4-4-4|
E----------------------------4-4-4-4-4-4--2-2-2-2-2-2|
(play once no singing)
What you waiting for............Searching for his brother in an empty
room across the hall.................He's coming back
Listening at night.....Waiting for a son to come up the stairs
Listening at night.........for slamming doors and a car to park,yeah yeah
--------------------------------------------------------------------------
Repeat part where guitar 2 came in here, same lyrics and all.
---------------------------------------------------------------------------
Then there is a little bridge part, both guitars play, guitar 1 once agian plays simple 
and guitar 2 plays whole chords and embelishes
Listen for when guitar 2 rings out. This might get a bit iffy. The amount of strums 
not be right but just listen for the change w/ lyrics
---------------------------------------------------------------------------
Guitar 1
e----------------------------------------------------|
b----------------------------------------------------|
g----------------------------------------------------|
d--4-4-4-4-4-4--4-4-4-4-4----------------------------|
a--4-4-4-4-4-4--4-4-4-4-4--6-6-6-6-6-6--6-6-6-6-6-6--|
E--------------------------4-4-4-4-4-4--4-4-4-4-4-4--|
1 Call him up this summer on the phone when you know it feels again
2 Found another lover........ Tell him straight tell him on the
e-----------------------------------------------------------------|
b-----------------------------------------------------------------| I marked the lines
g----------------------------------------------------| as 1 and 2-|
d--1-1-1-1-1-1----------------------------------------------------| reads "call him up...
a--2-2-2-2-2-2--2-2-2-2-2-2---------------------------------------| ....summer skin"
E---------------4-4-4-4-4-4---------------------------------------|
1 Summer skin---------                                   <----- 1-|
2 phoneline again, I'll call him up again
Guitar 2 chords ( they follow same strumming pattern as 1.)
  F#/C# G#m7  Bmaj7add9  F#
e------|-----|----------|--------------------------------------------------|
b------|-----|-2--------|--------------------------------------------------|
g--3---|-3---|-3--------|-3------------------------------------------------|
d--4---|-4---|-1--------|-4------------------------------------------------|
a--4---|-6---|-2--------|-4------------------------------------------------|
E------|-4---|-x--------|-2------------------------------------------------|
---------------------------------------------------------------------------|
Then return to Guitar 1 riff the lines then read :
--------------------------------------------------------------------------
call him up again
(play once no singings)
Tying both your shoes and......Looking past the ocean for the signal
Waiting for a body....................in a open box
They don't send you letters......They don't telephone your innocent son
They don't send you letters..But you're waiting for them You write him, yeah
----------------------------------------------------------------------------
Repeat part when guitar 2 comes in, with the same lrics
----------------------------------------------------------------------------
Repeat bridge thing with the lyrics as follows
----------------------------------------------------------------------------
Call him up this summer on the phone
when you know it feels right again
I'll call him up again
Call him up this summer on the phone
when you know it feels right again
Summer skin
----------------------------------------------------------------------------
then finish with guitar one riff and the line
Summer Skin
----------------------------------------------------------------------------
There it is I hope that's clear enough, some of the lyrics are really iffy, but I did 
best I could. That should be pretty accurate.
Добавлено: 10.04.2012
Другие материалы по этой песне:
  • Аккорды и текст

Страница создана 10.04.2012
http://primanota.ru/brand-new/untitled-08-chords.htm
Привет, Гость.
Предлагаем пройти революционный курс по гитаре.
Подарок от PrimaNota.Ru, забирай!