PrimaNota.ru - самый крупный в мире бесплатный архив песенных текстов, аккордов, табулатур и нот


Brand New - Vices - таба, бас-таба, видео

Регистрация Запомнить меня
Войти через:  Facebook Google Twitter Vk Yandex Mail.ru

Brand New - Vices - таба, бас-таба, видео

Печатать
Просмотров: 228
Vices
Brand New
Daisy (2009)

Tabbed by: Alex Barrera
Email: alexishxc1337@aol.com

Opening:
e|-----------------------|
B|-----------------------|
G|-5-5-5-5-5-5-5-5-5-5---|
D|-5-5-5-5-5-5-5-5-5-5---|
A|-3-3-3-3-3-3-3-3-3-3---|
E|-----------------------|


Vin:
e|-12----------15----12---12----------------14------|
B|----10-13------------------10-13----10-13----13---|
G|----------11----------9----------12---------------|
D|--------------------------------------------------|
A|--------------------------------------------------|
E|--------------------------------------------------|

e|-12---12----------------14------12---12----------------15-14---|
B|---------10-13----10-13----13-----------10-13----10-13---------|
G|----9----------12------------------9----------12---------------|
D|---------------------------------------------------------------|
A|---------------------------------------------------------------|
E|---------------------------------------------------------------|

Then:
e|-----------------------------------------|
B|-----------------------------------------|
G|-----------------------------------------|
D|-7-7-7-7-10-10-10------------------------|
A|------------------10-10-10-6-6-6-5-5-5---|
E|-----------------------------------------|X3

e|-----------------------------------------------|
B|-----------------------------------------------|
G|-----------------------------------------------|
D|-7-7-7-7-10-10-10------------------------------|
A|------------------10-10-10-10-10-10-10-10-12---|
E|-----------------------------------------------|

e|----------------------|
B|----------------------|
G|----------------------|
D|----------------------|
A|-10-10-10-10-10-12\---|
E|----------------------|X3

e|-----------------------|
B|-----------------------|
G|-5-5-5-5-5-5-5-5-5-5---|
D|-5-5-5-5-5-5-5-5-5-5---|
A|-3-3-3-3-3-3-3-3-3-3---|
E|-----------------------|

More of this:
e|-12----------15----12---12----------------14------|
B|----10-13------------------10-13----10-13----13---|
G|----------11----------9----------12---------------|
D|--------------------------------------------------|
A|--------------------------------------------------|
E|--------------------------------------------------|

e|-12---12----------------14------12---12----------------15-14---|
B|---------10-13----10-13----13-----------10-13----10-13---------|
G|----9----------12------------------9----------12---------------|
D|---------------------------------------------------------------|
A|---------------------------------------------------------------|
E|---------------------------------------------------------------|

e|-----------------------------------------|
B|-----------------------------------------|
G|-----------------------------------------|
D|-7-7-7-7-10-10-10------------------------|
A|------------------10-10-10-6-6-6-5-5-5---|
E|-----------------------------------------|X3

e|-----------------------------------------------|
B|-----------------------------------------------|
G|-----------------------------------------------|
D|-7-7-7-7-10-10-10------------------------------|
A|------------------10-10-10-10-10-10-10-10-12---|
E|-----------------------------------------------|

…goodbye to the ground:
e|----------------------|
B|----------------------|
G|----------------------|
D|----------------------|
A|-10-10-10-10-10-12\---|
E|----------------------|X2

Then this little fill:
e|--------------|
B|--------------|
G|--------------|
D|---------2~---|
A|-3p0----------|
E|-----3p0------|

e|----------------------|
B|----------------------|
G|----------------------|
D|----------------------|
A|-10-10-10-10-10-12\---|
E|----------------------|X3

e|-----------------------|
B|-----------------------|
G|-5-5-5-5-5-5-5-5-5-5---|
D|-5-5-5-5-5-5-5-5-5-5---|
A|-3-3-3-3-3-3-3-3-3-3---|
E|-----------------------|

e|-vin-wankery---|
B|-vin-wankery---|
G|-vin-wankery---|
D|-vin-wankery---|
A|-vin-wankery---|
E|-vin-wankery---|

e|----------------------|
B|----------------------|
G|----------------------|
D|----------------------|
A|-10-10-10-10-10-12\---|
E|----------------------|

e|-----------------------|
B|-----------------------|
G|-5-5-5-5-5-5-5-5-5-5---|
D|-5-5-5-5-5-5-5-5-5-5---|
A|-3-3-3-3-3-3-3-3-3-3---|
E|-----------------------|


Even more of this:
e|-12----------15----12---12----------------14------|
B|----10-13------------------10-13----10-13----13---|
G|----------11----------9----------12---------------|
D|--------------------------------------------------|
A|--------------------------------------------------|
E|--------------------------------------------------|

e|-12---12----------------15-14---|
B|---------10-13----10-13---------|
G|----9----------12---------------|
D|--------------------------------|
A|--------------------------------|
E|--------------------------------|

e|-----------------------------------------|
B|-----------------------------------------|
G|-----------------------------------------|
D|-7-7-7-7-10-10-10------------------------|
A|------------------10-10-10-6-6-6-5-5-5---|
E|-----------------------------------------|X3

e|-----------------------------------------------|
B|-----------------------------------------------|
G|-----------------------------------------------|
D|-7-7-7-7-10-10-10------------------------------|
A|------------------10-10-10-10-10-10-10-10-12---|
E|-----------------------------------------------|

e|----------------------|
B|----------------------|
G|----------------------|
D|----------------------|
A|-10-10-10-10-10-12\---|
E|----------------------|X3

End on:

e|-------------------|
B|-------------------|
G|-5-5-5-5-5-5-5-5---|
D|-5-5-5-5-5-5-5-5---|
A|-3-3-3-3-3-3-3-3---|
E|-------------------|
Добавлено: 19.06.2012
Другие материалы по этой песне:
  • Аккорды и текст

Страница создана 15.04.2012
http://primanota.ru/brand-new/vices-chords.htm
Привет, Гость.
Предлагаем пройти революционный курс по гитаре.
Подарок от PrimaNota.Ru, забирай!