PrimaNota.ru - самый крупный в мире бесплатный архив песенных текстов, аккордов, табулатур и нот


Boomtown Rats - She's So Modern - текст песни, таба, видео

Регистрация Запомнить меня
Войти через:  Facebook Google Twitter Vk Yandex Mail.ru

Boomtown Rats - She's So Modern - текст песни, таба, видео

Печатать
Просмотров: 120
Авторы музыки: Bob Geldof, Johnnie Fingers
Авторы текста: Bob Geldof, Johnnie Fingers
Band - Boomtown Rats
Song - She's So Modern
Submitted by wetwebwork.com

(Intro)
     E E E              E E E    E E E E
e-||-----------------|-------------------||
B-||-----------------|-------------------||
G-||-9-9-9--99-7---7-|--9-9-9~---9-9-9-9-||
D-||-9-9-9-------9---|--9-9-9~---9-9-9-9-||
A-||-7-7-7-----------|--7-7-7~---7-7-7-7-||
E-||-----------------|-------------------||

(Intro singing)
A           E
La la la la la la la
A           E
La la la la la la la
A           E
La la la la la la la
A           E
La la la la la


(Chorus)
A     D  E
She's so 20th century
A     D  E
She's so 1970's 
A   D     E
She knows the right things to say
A     D   E
She's got the right clothes to wear

A                   Gb    B  E
'Cos she's a modern girl, oh yeah 
A        Gb          B     E
A modern girl, yeah, ga-ga-ga-ga-ga 
A        Gb           A
A modern girl now, oh yeah


(Verse 1)
D              E E E
And Suzie is a jewel 
D                    E
She flashes when she smiles
D                       E
She's cunning and she's clever 
D                          E
She got the lowdown in her files

D              E
Magenta is the best 
D                             E
You know, she really makes me laugh
D                       E
She's always tryin' her impressions 
D                      E
She wants to be a photograph


(Chorus)
                 A     D  E
I gotta say now, she's so 20th century
A     D  E
She's so 1970's 
A   D     E
She knows the right things to say
A     D   E
She's got the right clothes to wear

             A      Gb    B  E
'Cos she's a modern girl, oh yeah 
A        Gb          B        E
A modern girl, yeah, ga-ga-ga-ga-ga 
A        Gb           A
A modern girl now, oh yeah
A
She's so modern

Gb       D
La la la la la la la,
B        A
La la la la,
Gb       D
La la la la la la la,
B        E/A, E/A, E/A, E/A/E
La la la


(Pre Solo climb)
     D F G A C D
e-||-------------||
B-||-------------||
G-||---------5-7-||
D-||-0-3-5-7-----||
A-||-------------||
E-||-------------||


(Solo)
Bass A~      E~        A~      E~        A~      E~        A     
e-||-----------------|-----------------|-----------------|----------||
B-||-----------------|-----------------|-----------------|----------||
G-||-666-7-6-444---4-|-666-7-6-444---4-|-666-7-6-444---4-|-6~-------||
D-||-------------7---|-------------7---|-------------7---|----------||
A-||-----------------|-----------------|-----------------|----------||
E-||-----------------|-----------------|-----------------|----------||

Bass       DDD          AAA         Gbx3    E     E     E     
e-||------------|------------|------------|---------------------||
B-||-----5-777~-|-7-5--------|------------|------2--------------||
G-||-6-7--------|-----7-666~-|-6-442--24~-|-4^(6)-(6)^4^2~(6)^4~||
D-||------------|------------|------44----|---------------------||
A-||------------|------------|------------|---------------------||
E-||------------|------------|------------|---------------------||


(Verse 2)
D                    E EEEEE
And Jean confided to me
D                         E EEEEE
She's Mona Lisa's biggest fan 
D                          E EEEEE
She drew a mustache on her face
D                          E EEEEE
She's always seen her as a man

D                        E EEEEE
And Charlie, ain't no Nazi 
D                             E EEEEE
She likes to wear her leather boots 
D                          E EEEEE
'Cos it's exciting for the veterans 
D                             EEEEEE
And it's a tonic for the troops


(Chorus)
A     D  E
She's so 20th century
A     D  E
She's so 1970's 
A     D   E
She knows the right things to say
A     D   E
She's got the right clothes to wear

A                   Gb    B  E
'Cos she's a modern girl, oh yeah 
A        Gb          B        E
A modern girl, yeah, ga-ga-ga-ga-ga 
A        Gb           A
A modern girl now, oh yeah
A
She's so m-m-m-m-modern


(Chorus - gear shift)
                 B     E  Gb
I gotta say now, she's so 20th century
B     E  Gb
She's so 1970's 
B     E  Gb
She knows the right things to say
B     E   Gb
She's got the right clothes to wear

            B     E  Gb
I tell you, she's so 20th century
B     E  Gb
She's so 1970's 
B     E   Gb
She knows the right things to say
B     E   Gb
She's got the right clothes to wear

She's so...
(Climb)
B-C-Db-D-Eb-E-F-Gb-G-Ab-A-B B
                          modern


Can play the solo down here, but...

(Solo)
     A       E         A       E         A       E         A     
e-||-----------------|-----------------|-----------------|----------||
B-||-222-3-2---------|-222-3-2---------|-222-3-2---------|-2~-------||
G-||---------444-2-4-|---------444-2-4-|---------444-2-4-|----------||
D-||-----------------|-----------------|-----------------|----------||
A-||-----------------|-----------------|-----------------|----------||
E-||-----------------|-----------------|-----------------|----------||

           D            A           Gb           B             
e-||-------222~-|-2----------|------------|---------------------||
B-||-2-3-5------|---5-3-222~-|-2----------|------2--------------||
G-||------------|------------|---442--24~-|-4^(6)-(6)^4^2~(6)^4~||
D-||------------|------------|------44----|---------------------||
A-||------------|------------|------------|---------------------||
E-||------------|------------|------------|---------------------||
Добавлено: 18.07.2013
Другие материалы по этой песне:
  • Аккорды и текст

Страница создана 19.07.2012
http://primanota.ru/boomtown-rats/shes-so-modern-chords.htm
Привет, Гость.
Предлагаем пройти революционный курс по гитаре.
Подарок от PrimaNota.Ru, забирай!