PrimaNota.ru - самый крупный в мире бесплатный архив песенных текстов, аккордов, табулатур и нот


Bohse Onkelz - Koenige Fuer Einen Tag - таба, видео

Регистрация Запомнить меня
Войти через:  Facebook Google Twitter Vk Yandex Mail.ru

Bohse Onkelz - Koenige Fuer Einen Tag - таба, видео

Печатать
Просмотров: 119
Уроки эстрадного вокала в Санкт-Петербурге
Böhse Onkelz
'Könige für einen Tag'
[aus Lügenmarsch / Gestern war heute noch morgen]

Tabed by Timo Smiatek

Intro:
|------------------------------------------------------------------------|
|------------------------------------------------------------------------|
|---7--9-----------------------------------------------------------------|
|---5--7--9--9--9--9--9--------------------------------------------------|
|---------7--7--7--7--7--------------------------------------------------|
|------------------------------------------------------------------------|


Riff I:
|------------------------------------------------------------------------|
|------------------------------------------------------------------------|
|----------------------------------------------------------2--2----------|
|--2---------------------------------------2---------------2--2--5-------|
|--2---------------------------------------2---------------0--0--5-------|
|--0--3p0--3p0--0--0--0--0--0--0--0--0--0--0--3p0--3p0--0--------3--0----|

|------------------------------------------------------------------------|
|------------------------------------------------------------------------|
|----------------------------------------------------------2--2----------|
|--2---------------------------------------2---------------2--2--5-------|
|--2---------------------------------------2---------------0--0--5-------|
|--0--3p0--3p0--0--0--0--0--0--0--0--0--0--0--3p0--3p0--0--------3-------|


Riff II:
Wie ein Römer...
|------------------------------------------------------------------------|
|------------------------------------------------------------------------|
|--9--9--9-------------------------7--7--7-------------------------------|
|--9--9--9-------------------------7--7--7-------------------------------|
|--7--7--7-------------------------5--5--5-------------------------------|
|----------------3p0--3p0--3p0--0----------------3p0--3p0--3p0--0--------|

|------------------------------------------------------------------------|
|------------------------------------------------------------------------|
|----------------------------------4--4--4-------------------------------|
|--5--5--5-------------------------4--4--4-------------------------------|
|--5--5--5-------------------------2--2--2-------------------------------|
|--3--3--3-------3p0--3p0--3p0--0----------------3p0--3p0--3p0--0--------|


Riff III:
Wir sind Könige...
|------------------------------------------------------------------------|
|------------------------------------------------------------------------|
|--12--12--12--12--5--5--5--5--12--12--12--12--7--7--9--7----------------|
|--12--12--12--12--5--5--5--5--12--12--12--12--7--7--9--7----------------|
|--10--10--10--10--3--3--3--3--10--10--10--10--5--5--7--5----------------|
|------------------------------------------------------------------------|

|------------------------------------------------------------------------|
|------------------------------------------------------------------------|
|--12--12--12--12--5--5--5--5--7--10--9--7--5--5/7/5---------------------|
|--12--12--12--12--5--5--5--5--7--10--9--7--5--5/7/5---------------------|
|--10--10--10--10--3--3--3--3--5---8--7--5--3--3/5/3---------------------|
|------------------------------------------------------------------------|


Riff IV:
|------------------------------------------------------------------------|
|------------------------------------------------------------------------|
|------------------------------------------------------------------------|
|--2--------4--------5-----4-----5---------------------------------------|
|--2--------4--------5-----4-----5---------------------------------------|
|--0--0--0--2--0--0--3--0--2--0--3---------------------------------------|



Key:

Intro
-----------------------------------
Riff I
-----------------------------------
Verse I
2x Riff II
------------------------------------
Chorus
2x Riff III
------------------------------------
4x Riff IV
------------------------------------
Riff I
------------------------------------
Verse II
2x Riff II
--------------------------------------
Chorus
2x Riff III
---------------------------------------
4 x Riff IV
---------------------------------------
SOLO
---------------------------------------
Chorus
2 x Riff III
---------------------------------------
4 x Riff IV
---------------------------------------
Riff I
---------------------------------------
Verse III (I again)
2 x Riff II
---------------------------------------
Chorus
2 x Riff III
---------------------------------------
6 x Riff IV
---------------------------------------


Have fun !!!
     
Добавлено: 15.11.2013
Другие материалы по этой песне:
  • Аккорды и текст

Страница создана 15.11.2013
http://primanota.ru/bohse-onkelz/koenige-fuer-einen-tag-chords.htm
Привет, Гость.
Предлагаем пройти революционный курс по гитаре.
Подарок от PrimaNota.Ru, забирай!